PrimaNota.ru - самый крупный в мире бесплатный архив песенных текстов, аккордов, табулатур и нот


Roger Creager - Everclear Song - аккорды и текст, видео

Регистрация Запомнить меня
Войти через:  Facebook Google Twitter Vk Yandex Mail.ru

Roger Creager - Everclear Song - аккорды и текст, видео

Печатать
Просмотров: 77
Уроки эстрадного вокала в Санкт-Петербурге
Everclear Song
Roger Creager
Roger Creager - The Everclear Song
Tabbed by :   johnny c

the intros played pretty fast, the verses are same chords and same
rhythym, but its random strumming. [note: pick the X chord.]

chords used:
       
         EADGBe
G      (3 2 0 0 3 3)
C      (x 3 2 0 3 3)
D      (x x x 2 3 2)

intro:
  G                 C     D          C
e------3--3--3--3-----3--3--3--3-----2--2--2--2---3--3--3--3
B------3--3--3--3-----3--3--3--3----3--3--3--3----3--3--3--3
G------0--0--0--0-----0--0--0--0----2--2--2--2----0--0--0--0
D------0--0--0--0----2--2--2--2--X-x--x--x--x----2--2--2--2
A------2--2--2--2--X-3--3--3--3----x--x--x--x--X-3--3--3--3
E--X---3--3--3--3----x--x--x--x----x--x--x--x----x--x--x--x

  G      C       D    C                G
e---3--3--3--3----3--3--3--3----2----3------3--3--3--3--3
B---3--3--3--3----3--3--3--3----3----3------3--3--3--3--3
G---0--0--0--0----0--0--0--0----2----0-----0--0--0--0--0
D---0--0--0--0----2--2--2--2--X-x----2-----0--0--0--0--0
A---2--2--2--2--X-3--3--3--3----x----3-----2--2--2--2--2
E-X-3--3--3--3----x--x--x--x----x----x---X-3--3--3--3--3

chorus:

 G                     C                D C 
Tequila dries me out...   

  G                   C D               C
the whiskey makes me nautious...

     G                       C D  C
so if your thinkin, about drinkin...

               G               C        D
its the invisible intoxicant,  its called everclear.
     
Добавлено: 14.09.2013
Другие материалы по этой песне:
  • Аккорды и текст

Страница создана 14.09.2013
http://primanota.ru/roger-creager/everclear-song-chords.htm
Привет, Гость.
Предлагаем пройти революционный курс по гитаре.
Подарок от PrimaNota.Ru, забирай!