PrimaNota.ru - самый крупный в мире бесплатный архив песенных текстов, аккордов, табулатур и нот


The Rods Feat Ronnie James Dio - The Code - таба, видео

Регистрация Запомнить меня
Войти через:  Facebook Google Twitter Vk Yandex Mail.ru

The Rods Feat Ronnie James Dio - The Code - таба, видео

Печатать
Просмотров: 85
Уроки эстрадного вокала в Санкт-Петербурге
-------------------------------------------------------------------------------
                             The Code - The Rods (FT. Dio)
-------------------------------------------------------------------------------

Tuning:Drop D
Tab By:paul42ftw
email:paul42ftw@gmail.com

                              Intro

e|---------------------------------------------------------------------------|
B|---------------------------------------------------------------------------|
G|---------------------------------------------------------------------------|
D|-0-0-0-1--0----------------------------------------------------------------|
A|-0-0-0-1--0-x2-------------------------------------------------------------|
E|-0-0-0-1--0----------------------------------------------------------------|
                        (Then Goes Into the Chorus)-


                             

                              Chorus

e|---------------------------------------------------------------------------|
B|---------------------------------------------------------------------------|
G|---------------------------------------------------------------------------|
D|---------------------------------------------------------------------------|
A|---5-3--1--0-1----------5-3--0-1-0-----------------------------------------|
E|-0-------------2------0------------2-3-2-----------------------------------|

                              Verse

e|---------------------------------------------------------------------------|
B|---------------------------------------------------------------------------|
G|---------------------------------------------------------------------------|
D|-0-0-0--0-0---0-0-0--0-0-0--1-1--------------------------------------------|
A|-0-0-0--0-0---0-0-0--0-0-0--1-1--------------------------------------------|
E|-0-0-0--0-0---0-0-0--0-0-0--1-1--------------------------------------------|


Добавлено: 16.12.2015
Другие материалы по этой песне:
  • Аккорды и текст

Страница создана 16.12.2015
http://primanota.ru/rods-feat-ronnie-james-dio/code-chords.htm
Привет, Гость.
Предлагаем пройти революционный курс по гитаре.
Подарок от PrimaNota.Ru, забирай!