PrimaNota.ru - самый крупный в мире бесплатный архив песенных текстов, аккордов, табулатур и нот


Rodrigo Y Gabriela - Logos Live - таба, видео

Регистрация Запомнить меня
Войти через:  Facebook Google Twitter Vk Yandex Mail.ru

Rodrigo Y Gabriela - Logos Live - таба, видео

Печатать
Просмотров: 126
Title: Logos
Artist: Rodrigo y Gabriela
Album: 11:11

Tabbed by Petr Certik (pecer.t /at/ gmail.com)


4/4

E|-----------------|-----------------|-----------------|-----------------|
B|-----------------|-----------------|-----------------|-----------------|
G|-----------------|-----------------|-----------------|-----------------|   x2
D|-----6-----6-----|-----6-----6-----|-----7-----7-----|-----7-----7-----|
A|---2-----2-----2-|---2-----2-----2-|---3-----3-----3-|---7-----7-----7-|
E|-0-----0-----0---|-0-----0-----0---|-0-----0-----0---|-5-----5-----5---|



E|-----------------|-----------------|-----------------|-----------------|
B|-----------------|-----------------|-----------------|-----------------|
G|-----------------|-----------------|-----------------|-----------------|   x2
D|-----9-----9-----|-----9-----9-----|-----10----10----|-----7-----7-----|
A|---7-----7-----7-|---7-----7-----7-|---7-----7-----7-|---7-----7-----7-|
E|-0-----0-----0---|-0-----0-----0---|-8-----8-----8---|-5-----5-----5---|

3/4

E|-------------|-------------|-------------|-------------|
B|-------------|-----4-----4-|-------------|-------------|
G|-----5-----5-|-------------|-----3-----3-|-------------|
D|-------------|---6-----6---|-------------|-----4/6-4-3-|
A|---8-----8---|-4-----4-----|---6-----6---|---4---------|
E|-6-----6-----|-------------|-4-----4-----|-2-----------|
                                                         |
                                                         |   x2
                                                         |
E|-------------|-------------|-------------|-------------|
B|-------------|-----4-----4-|-------------|-------------|
G|-----5-----5-|-------------|-----3-------|-----3-------|
D|-------------|---6-----6---|-------------|-------------|
A|---8-----8---|-4-----4-----|---6---6---6-|---6---6---6-|
E|-6-----6-----|-------------|-4-------4---|-4-------4---|



E|-------------|-------------|-------------|-------------|
B|-------0-----|-------0-----|-------0-----|-------------|
G|-----5---5---|-----5---5---|-----5---5---|-------------|
D|---2-------2-|---2-------2-|---2-------2-|-----3-----2-|
A|-0-----------|-------------|-------------|---3-----2---|
E|-------------|-3-----------|-2-----------|-1-----0-----|
                                                         |
                                                         |   x2
                                                         |
E|-------------|-------------|-------0-----|-------------|
B|-------0-----|-------0-----|-----3---3---|-------------|
G|-----5---5---|-----5---5---|---2-------2-|-------------|
D|---2-------2-|---2-------2-|-0-----------|-----2-----2-|
A|-0-----------|-------------|-------------|---2-----2---|
E|-------------|-3-----------|-------------|-0-----4-----|

4/4
                                 Q
E|-----------------|-----------------|
B|-----------------|-----------------|
G|-----5-----4-----|-5-----4---------|   x2
D|---2-----2-----2-|-----2---2-------|
A|-0-----0-----0---|---0-------------|
E|-----------------|-----------0-3---|

Here, Rodrigo plays a different part in harmony with Gabriela.
The following is an approximation for a single guitar:
                                 Q
E|-----------------|-----------------|
B|-----5-----3-----|-5-----3---------|
G|-----5-----4-----|-5-----4---------|   x2
D|---2-----2-----2-|-----2---2-------|
A|-0-----0-----0---|---0-------------|
E|-----------------|-----------0-3---|
Добавлено: 03.08.2015
Другие материалы по этой песне:
  • Аккорды и текст

Страница создана 03.08.2015
http://primanota.ru/rodrigo-y-gabriela/logos-live-chords.htm
Привет, Гость.
Предлагаем пройти революционный курс по гитаре.
Подарок от PrimaNota.Ru, забирай!