PrimaNota.ru - самый крупный в мире бесплатный архив песенных текстов, аккордов, табулатур и нот


Rodrigo Amarante - Mon Nom - таба, видео

Регистрация Запомнить меня
Войти через:  Facebook Google Twitter Vk Yandex Mail.ru

Rodrigo Amarante - Mon Nom - таба, видео

Печатать
Просмотров: 105
Rodrigo Amarante - Mon Nom ( https://www.youtube.com/watch?v=wniybDzf0i0 )

                              W/o capo just the intro
Standard Tuning EADGBE        W/ capo the entire song


Intro w/o capo (for those who dont have it)

                   je suis l'étranger...
   2x each "block"
e|---------2-----2-----2-----2-----2-----2-----2-----2----|
B|------3-----2-----0-------------------------------------|
G|------------------------2-----4-----4-----4-----4-------| Consider this a "block"
D|--------------------------------------------------------|
A|--------------------------------------------------------|
E|--------------------------------------------------------|

e|---------3-----3-----3-----3-----3-----3-----3-----3----|
B|------3-----2-----0-------------------------------------|
G|------------------------2-----4-----4-----4-----4-------|
D|--------------------------------------------------------|
A|--------------------------------------------------------|
E|--------------------------------------------------------|


W/ capo on the 4th fret (easier)

   2x each "block" 3 times
e|--------------------------------------------------------|
B|-------5-----5-----5-----5-----5-----5-----5-----5------|
G|----5-----4-----2-----0-----2-----2-----2-----2---------| Consider this a "block"
D|--------------------------------------------------------|
A|--------------------------------------------------------|
E|--------------------------------------------------------|

e|--------------------------------------------------------|
B|-------6-----6-----6-----6-----6-----6-----6-----6------|
G|----5-----4-----2-----0-----2-----2-----2-----2---------|
D|--------------------------------------------------------|
A|--------------------------------------------------------|
E|--------------------------------------------------------|

  Repeat 4x then go back to the start
e|---0---0---0---0-|----3----3----3---3-|---1---1---1---1-|---5---5---5---0-|
B|-1---1---1---1---|--5----5----5---5---|-3---3---3---3---|-6---6---6---6---|
G|-----------------|--------------------|-----------------|-----------------|
D|-----------------|--------------------|-----------------|-----------------|
A|-----------------|--------------------|-----------------|-----------------|
E|-----------------|--------------------|-----------------|-----------------|

Then...
              Mais moi...
e|-----------------|-----------------|-----------------|-----------------|
B|---6---6---6---6-|---6---6---6---6-|---6---6---6---6-|---6---6---6---6-|
G|-9---9---9---9---|-7---7---7---7---|-4---4---4---5---|-7---7---7---7---|
D|-----------------|-----------------|-----------------|-----------------|
A|-----------------|-----------------|-----------------|-----------------|
E|-----------------|-----------------|-----------------|-----------------|

  Then go back to the beginning, humming...

  Final part                           3rd box - repeat
e|-----------------|-----------------|-----------------|
B|---5---5---5---5-|---5---5---5---5-|---6---6---6---6-|
G|-5---5---5---5---|-5---4---2---0---|-5---5---5---5---|
D|-----------------|-----------------|-----------------|
A|-----------------|-----------------|-----------------|
E|-----------------|-----------------| ----------------|

e|-----------------|-----------------|-----------------|
B|---6---6---6---6-|---5---5---5---5-|---5---5---5---5-| There's a pattern
G|-5---4---2---4---|-5---7---5---4---|-5---4---2---0---| going on now, just
D|-----------------|-----------------|-----------------| repeat from the
A|-----------------|-----------------|-----------------| 3rd box :D
E|-----------------|-----------------|-----------------|

  Then back to the beginning again, and end it softly, giving it a gently sweep to the chords.


Thus silence ensues, pretty good song by Rodrigo Amarante, chose to do this in English because
I think everybody gets it this way, French/English/Portuguese alike.
Добавлено: 10.11.2015
Вам также может быть интересно:
Другие материалы по этой песне:
  • Аккорды и текст

Страница создана 10.11.2015
http://primanota.ru/rodrigo-amarante/mon-nom-chords.htm
Привет, Гость.
Предлагаем пройти революционный курс по гитаре.
Подарок от PrimaNota.Ru, забирай!