PrimaNota.ru - самый крупный в мире бесплатный архив песенных текстов, аккордов, табулатур и нот


Rodney Crowell - Come On Funny Feelin' - аккорды и текст, видео

Регистрация Запомнить меня
Войти через:  Facebook Google Twitter Vk Yandex Mail.ru

Rodney Crowell - Come On Funny Feelin' - аккорды и текст, видео

Печатать
Просмотров: 81
Уроки эстрадного вокала в Санкт-Петербурге
Come On Funny Feelin'
Rodney Crowell
|STANDARD TUNING|


Chords Used:

      E    A    B    C#m
e|----7----5----2----4----|
B|----9----5----4----5----|
G|----9----6----4----6----|
D|----9----7----4----6----|
A|----7----7----2----4----|
E|---------5--------------|



Intro: E A E A


        E                             A
I don't want to wind up bitter lost inside a silent rage
     E                                  A
Or become like Rilke's panther out here locked up in a cage
    E                                A
The old man I've been talkin' to has cotton in his ears
         E                              A
But then who am I to blame him I've had mine stopped up for years
        B             E
Singing come on funny feeling


E A E A


E                                 A
L.A. hits my windshield like some Armageddon sprawl
         E                                 A
Planting palm trees in the desert makes no sense to me at all
     E                                   A
In a science fiction world where walkin' wounded leave their mark
       E                                  A
I just took my place among them trying to find a place to park
        B             E
Singing come on funny feeling


    A                                  B
The funny feeling comes when you're in love with everyone
             C#m                              A
and all your races have been run or laid to rest
   E                              B
So get this freakin' anvil off my chest
              E
Come on funny feeling

 

Guitar Solo:
 
   E                   A                       E                   A                    
e|---------------------------------------------------------------------------------------|
B|-12-9-12-9-12-9-12-9-14-10-14-10-14-10-14-10-12-9-12-9-12-9-12-9-14-10-14-10-14-10-14--|
G|---------------------------------------------------------------------------------------|
D|---------------------------------------------------------------------------------------|
A|---------------------------------------------------------------------------------------|
E|---------------------------------------------------------------------------------------|

   E                      B                   E 
e|------------------------------------------------------------0--------------------------|                
B|-10-12-9-12-9-12-9-12-9-10-7-10-7-10-7-10-7-9-5-9-5-9-5-9-5---0--0---------------------|
G|----------------------------------------------------------------1----------------------|
D|-------------------------------------------------------------------2~~~~~~-------------|
A|---------------------------------------------------------------------------------------|
E|---------------------------------------------------------------------------------------|


    A                               B
The funny feeling knows the way the whole thing comes and goes
             C#m                                  A
It makes you stop and smell the roses if you're smart
   E                              B
So get this freakin' anvil off my heart
              E
Come on funny feeling


        E                                       A
So it's not like I'm not blessed with something special in my world
      E                                    A
Just around the next dark corner there's a blue eyed dancing girl
    E                                 A
Who loves me like tomorrow comes with everything I need
       E                                A
I just have to pay attention where this road I'm on might lead
            B             E
I'm singing come on funny feeling


    A                                 B
The funny feeling knows the truth the eye for eye & tooth for tooth
     C#m                                  A
It's something way back in your youth you should not second guess
    A                             B
The funny feeling never lies it's there to open up your eyes
    C#m                              A
And make you stop and realize you're blessed
   E                              B
So get this freakin' anvil off my chest
              E       A
Come on funny feeling
              E       A
Come on funny feeling
              E       A
Come on funny feeling
              E      
Come on funny feeling
Добавлено: 02.10.2015
Другие материалы по этой песне:
  • Аккорды и текст

Страница создана 10.04.2012
http://primanota.ru/rodney-crowell/come-on-funny-feelin-chords.htm
Привет, Гость.
Предлагаем пройти революционный курс по гитаре.
Подарок от PrimaNota.Ru, забирай!