PrimaNota.ru - самый крупный в мире бесплатный архив песенных текстов, аккордов, табулатур и нот


Rodgau Monotones - St Tropez Am Baggersee - таба, видео

Регистрация Запомнить меня
Войти через:  Facebook Google Twitter Vk Yandex Mail.ru

Rodgau Monotones - St Tropez Am Baggersee - таба, видео

Печатать
Просмотров: 169
Уроки эстрадного вокала в Санкт-Петербурге
-------------------------------------------------------------------------------
                             St. Tropez - Rodgau Monotones
-------------------------------------------------------------------------------
Tabbed by: Scorpion-King

Tuning:standart

Intro: 
e|---------------------2-2---------------------------------------------------|
B|---------------------5-3---------------------------------------------------|
G|---------4-4-4-4-----4-2--------------------4-4-4-4---1-2-1-1-2-1-1-2-1----|
D|-2-4-2---4-4-4-4---2-2-0--2-2-4-2---2-4-2---4-4-4-4---2-2-2-2-2-2-2-2-2----| 
A|-0-0-0---2-2-4-2---2------0-0-0-0---0-0-0---2-2-4-2---2-2-2-2-2-2-2-2-2----|
E|-------------------0----------------------------------0-0-0-0-0-0-0-0-0----|

Main Riff:
e|---------------------------------------------------------------------------|
B|---------------------------------------12----------------------------------|
G|--------12-12-11-11-9--14-14-12-12-9------------9-11b-11b-11b----11-9~-----|
D|-7-9-11------------------------------------9-11---------------11-----------|
A|---------------------------------------------------------------------------|
E|---------------------------------------------------------------------------|

e|---------------------------------------------------------------------------|
B|---------------------------------------------------------------------------|
G|--------12-12-11-11-9--14-14-12-12-9----11-9~------------------------------|
D|-7-9-11-------------------------------11-----------------------------------|
A|---------------------------------------------------------------------------|
E|---------------------------------------------------------------------------|

Verse:
e|---------------------------------------------------------------------------|
B|---------------------------------------------------------------------------|
G|---------------------------------------------------------------------------|
D|-----------------------2-2-4-5-4-2-2-4-2-2---------------------------------|
A|-2-2-4-5-4-2-2-4-2-2---0-0-0-0-0-0-0-0-0-0---------------------------------|
E|-0-0-0-0-0-0-0-0-0-0-------------------------------------------------------|

e|--------------------------------------2------------------------------------|
B|--------------------------------------5------------------------------------|
G|-4-4-4---------------2---2------------4---2-1------------------------------|
D|-4-4-4---------------2-4-2----------2-2-2-2-2------------------------------| 2x times
A|-2-2-2---------------0-0-0----------2---2-2-2------------------------------|
E|------------------------------------0---0-0-0------------------------------|

Bridge:
e|---------------------------------------------------------------------------|
B|---------------------------------------------------------------------------|
G|----4----------------------------------2-2-2-------------------------------|
D|----4----------------------------------2-2-2-------------------------------|
A|----2----------------------------------0-0-0-------------------------------|
E|---------------------------------------------------------------------------|

Refrain:
e|---------------------------------------------------------------------------|
B|---------------------------------------------------------------------------|
G|-----1-----4-----2-------------4-4-4------6--------------0-----------------|
D|-----2-----4-----2-4-2---------4-4-4------6------------2-------------------|
A|-----2-----2-----0-0-0---------2-4-2------4--------0-4---------------------|
E|-----0---------------------------------------------------------------------|

e|---------------------------------------------------------------------------|
B|---------------------------------------------------12...-------------------|
G|-----1-----4-----------12-12-11-11-9-14-14-12-12-9-------------------------|
D|-----2-----4---------------------------------------------------------------|
A|-----2-----2---------------------------------------------------------------|
E|-----0---------------------------------------------------------------------|

Hope you have fun and good luck :)


************************************

| ~   vibrato
| b   Bend

************************************
Добавлено: 10.08.2015
Другие материалы по этой песне:
  • Аккорды и текст

Страница создана 10.08.2015
http://primanota.ru/rodgau-monotones/st-tropez-am-baggersee-chords.htm
Привет, Гость.
Предлагаем пройти революционный курс по гитаре.
Подарок от PrimaNota.Ru, забирай!