PrimaNota.ru - самый крупный в мире бесплатный архив песенных текстов, аккордов, табулатур и нот


Rodgau Monotones - Is Mir Egal - таба, видео

Регистрация Запомнить меня
Войти через:  Facebook Google Twitter Vk Yandex Mail.ru

Rodgau Monotones - Is Mir Egal - таба, видео

Печатать
Просмотров: 57
Уроки эстрадного вокала в Санкт-Петербурге
-------------------------------------------------------------------------------
                        Is mir Egal - Rodgau Monotones
-------------------------------------------------------------------------------
Tabbed by:
E-mail:

Tuning: E/A/D/G/B/e

Intro
e|-----------------------------------------------------------------------------------------|
B|-----------------------------------------------------------------------------------------|
G|-----------------------------------------------------------------------------------------| 
D|--2--2--5------4p2--------5------4p2---------------3-----2p0--------3-----2p0-------2--2-| 4x
A|--0--0------0--------3h4------0--------3--4------------------------------------3h4-----0-|
E|---------------------------------------------1--1-----1-------2--3-----3-----------------|

Verse
e|-----------------------------------------------------------------------------------------|
B|-----------------------------------------------------------------------------------------|
G|---------------7--7--7--7----------------7--7--7--7---10--10--10--10---------------------|
D|--7--7--7--7---7--7--7--7---5--5--5--5---7--7--7--5---10--10--10--10---10--10--10--10----|
A|--7--7--7--7---5--5--5--5---5--5--5--5---5--5--5--5---8---8---8---8----10--10--10--10----|
E|--5--5--5--5----------------3--3--3--3---------------------------------8---8---8---8-----|

e|-----------------------------------------------------------------------------------------|
B|-----------------------------------------------------------------------------------------|
G|--9--9--9--9---9--9--9--9-----------------7--7--7--7----------------7--7--7--7-----------|
D|--9--9--9--7---9--9--9--9----7--7--7--7---7--7--7--7---5--5--5--5---7--7--7--7-----------|
A|--7--7--7--7---7--7--7--7----7--7--7--7---5--5--5--5---5--5--5--5---5--5--5--5-----------|
E|-----------------------------5--5--5--5----------------3--3--3--3------------------------|

e|-----------------------------------------------------------------------------------------|
B|-----------------------------------------------------------------------------------------|
G|-----------------------------------------------------------------------------------------|
D|-----------5-----7-----5----------------2-----------------2---7--------------------------|
A|--5--6--7-----7-----7-----7--5\3--5--3-----3--5--3--0-----0---7--------------------------|
E|-------------------------------------------------------3------5--------------------------|

e|-----------------------------------------------------------------------------------------|
B|-----------------------------------------------------------------------------------------|
G|---------------7--7--7--7----------------7--7--7--7---10--10--10--10---------------------|
D|--7--7--7--7---7--7--7--7---5--5--5--5---7--7--7--5---10--10--10--10---10--10--10--10----|
A|--7--7--7--7---5--5--5--5---5--5--5--5---5--5--5--5---8---8---8---8----10--10--10--10----|
E|--5--5--5--5----------------3--3--3--3---------------------------------8---8---8---8-----|

e|-----------------------------------------------------------------------------------------|
B|-----------------------------------------------------------------------------------------|
G|--9--9--9--9---9--9--9--9-----------------7--7--7--7----------------7--7--7--7-----------|
D|--9--9--9--7---9--9--9--9----7--7--7--7---7--7--7--7---5--5--5--5---7--7--7--7-----------|
A|--7--7--7--7---7--7--7--7----7--7--7--7---5--5--5--5---5--5--5--5---5--5--5--5-----------|
E|-----------------------------5--5--5--5----------------3--3--3--3------------------------|

e|-----------------------------------------------------------------------------------------|
B|-----------------------------------------------------------------------------------------|
G|-----------------------------------------------------------------------------------------|
D|-----------5-----7-----5----------------2------------------------------------------------|
A|--5--6--7-----7-----7-----7--5\3--5--3-----3--5--3--0------------------------------------|
E|-------------------------------------------------------3---------------------------------|

Bridge
e|-----------------------------------------------------------------------------------------|
B|-----------------------------------------------------------------------------------------|
G|---------------9~7-------------------------9--9------------------------------------------|
D|---------------9~7--2h4--2-----------------9--9------------------------------------------|
A|----------------------------5--4--------------7------------------------------------------|
E|--3--2--1--0----------------------3--2--0------------------------------------------------|

Chorus
e|-----------------------------------------------------------------------------------------|
B|-----------------------------------------------------------------------------------------|
G|--7--7--7--7--7--7----------------------9--9--9--9--9--9---11--11--11--11--11--11--------|
D|--7--7--7--7--7--7---7--7--7--7--7--7---9--9--9--9--9--9---9---9---9---9---9---9---------| 3x
A|--5--5--5--5--5--5---7--7--7--7--7--7---7--7--7--7--7--7---9---9---9---9---9---9---------|
E|---------------------5--5--5--5--5--5----------------------------------------------------|

e|-----------------------------------------------------------------------------------------|
B|-----------------------------------------------------------------------------------------|
G|--7--7--7--7--7--7----------------------9------------------------------------------------|
D|--7--7--7--7--7--7---7--7--7--7--7--7---9------------------------------------------------| 
A|--5--5--5--5--5--5---7--7--7--7--7--7---7------------------------------------------------|
E|---------------------5--5--5--5--5--5----------------------------------------------------|

Pre-Verse
e|-----------------------------------------------------------------------------------------|
B|-----------------------------------------------------------------------------------------|
G|-----------------------------------------------------------------------------------------|
D|---------7--7----------5--7---10--10------------9--9--9--9-------------------------------|
A|--7--7---5--5---3--5---5--7---8---8----10--10---7--7--7--7-------------------------------|
E|--5--5----------3--5-------------------8---8---------------------------------------------|

Verse 2
e|-----------------------------------------------------------------------------------------|
B|-----------------------------------------------------------------------------------------|
G|---------------7--7--7--7----------------7--7--7--7---10--10--10--10---------------------|
D|--7--7--7--7---7--7--7--7---5--5--5--5---7--7--7--5---10--10--10--10---10--10--10--10----|
A|--7--7--7--7---5--5--5--5---5--5--5--5---5--5--5--5---8---8---8---8----10--10--10--10----|
E|--5--5--5--5----------------3--3--3--3---------------------------------8---8---8---8-----|

e|-----------------------------------------------------------------------------------------|
B|-----------------------------------------------------------------------------------------|
G|--9--9--9--9---9--9--9--9-----------------7--7--7--7----------------7--7--7--7-----------|
D|--9--9--9--7---9--9--9--9----7--7--7--7---7--7--7--7---5--5--5--5---7--7--7--7-----------|
A|--7--7--7--7---7--7--7--7----7--7--7--7---5--5--5--5---5--5--5--5---5--5--5--5-----------|
E|-----------------------------5--5--5--5----------------3--3--3--3------------------------|

e|-----------------------------------------------------------------------------------------|
B|-----------------------------------------------------------------------------------------|
G|-----------------------------------------------------------------------------------------|
D|-----------5-----7-----5----------------2------------------------------------------------|
A|--5--6--7-----7-----7-----7--5\3--5--3-----3--5--3--0------------------------------------|
E|-------------------------------------------------------3---------------------------------|

Bridge 2
e|-----------------------------------------------------------------------------------------|
B|-----------------------------------------------------------------------------------------|
G|---------------9~7-------------------------9--9------------------------------------------|
D|---------------9~7--2h4--2-----------------9--9------------------------------------------|
A|----------------------------5--4--------------7------------------------------------------|
E|--3--2--1--0----------------------3--2--0------------------------------------------------|


Chorus 2
e|-----------------------------------------------------------------------------------------|
B|-----------------------------------------------------------------------------------------|
G|--7--7--7--7--7--7----------------------9--9--9--9--9--9---11--11--11--11--11--11--------|
D|--7--7--7--7--7--7---7--7--7--7--7--7---9--9--9--9--9--9---9---9---9---9---9---9---------| 3x
A|--5--5--5--5--5--5---7--7--7--7--7--7---7--7--7--7--7--7---9---9---9---9---9---9---------|
E|---------------------5--5--5--5--5--5----------------------------------------------------|

e|-----------------------------------------------------------------------------------------|
B|-----------------------------------------------------------------------------------------|
G|--7--7--7--7--7--7----------------------9------------------------------------------------|
D|--7--7--7--7--7--7---7--7--7--7--7--7---9------------------------------------------------| 
A|--5--5--5--5--5--5---7--7--7--7--7--7---7------------------------------------------------|
E|---------------------5--5--5--5--5--5----------------------------------------------------|

Solo (Rhythm Guitar)
e|-----------------------------------------------------------------------------------------|
B|-----------------------------------------------------------------------------------------|
G|-----------------------------------------------------------------------------------------|
D|--3--3--3--3--3--3--3--3--3--3--3--3--3--3--3--3--3--3--3--3--3--3--3--3-\---------------|
A|--3--3--3--3--3--3--3--3--3--3--3--3--3--3--3--3--3--3--3--3--3--3--3--3--24x------------|
E|--1--1--1--1--1--1--1--1--1--1--1--1--1--1--1--1--1--1--1--1--1--1--1--1-/---------------|

e|-----------------------------------------------------------------------------------------|
B|-----------------------------------------------------------------------------------------|
G|--7--7--7--7--7--7--7--7--7--7--7--7-\---------------------------------------------------|
D|--7--7--7--7--7--7--7--7--7--7--7--7--12x---7--7--7--7--7--7--7--7--7--7--7--7-\---------| 2x
A|--5--5--5--5--5--5--5--5--5--5--5--5-/------7--7--7--7--7--7--7--7--7--7--7--7--12x------|
E|--------------------------------------------5--5--5--5--5--5--5--5--5--5--5--5-/---------|

e|-----------------------------------------------------------------------------------------|
B|-----------------------------------------------------------------------------------------|
G|-----------------------------------------------------------------------------------------|
D|--3--3--3--3--3--3--3--3--3--3--3--3--3--3--3--3--3--3--3--3--3--3--3--3-\---------------|
A|--3--3--3--3--3--3--3--3--3--3--3--3--3--3--3--3--3--3--3--3--3--3--3--3--24x------------|
E|--1--1--1--1--1--1--1--1--1--1--1--1--1--1--1--1--1--1--1--1--1--1--1--1-/---------------|

e|-----------------------------------------------------------------------------------------|
B|-----------------------------------------------------------------------------------------|
G|--7--7--7--7--7--7--7--7--7--7--7--7--7--7--7--7--7--7/16-\------------------------------|
D|--7--7--7--7--7--7--7--7--7--7--7--7--7--7--7--7--7--7/16--18x --------------------------|
A|--5--5--5--5--5--5--5--5--5--5--5--5--5--5--5--5--5--5/16-/------------------------------|
E|-----------------------------------------------------------------------------------------|


Chorus 3
e|-----------------------------------------------------------------------------------------|
B|-----------------------------------------------------------------------------------------|
G|--7--7--7--7--7--7----------------------9--9--9--9--9--9---11--11--11--11--11--11--------|
D|--7--7--7--7--7--7---7--7--7--7--7--7---9--9--9--9--9--9---9---9---9---9---9---9---------| 3x
A|--5--5--5--5--5--5---7--7--7--7--7--7---7--7--7--7--7--7---9---9---9---9---9---9---------|
E|---------------------5--5--5--5--5--5----------------------------------------------------|

e|-----------------------------------------------------------------------------------------|
B|-----------------------------------------------------------------------------------------|
G|--7--7--7--7--7--7----------------------9---11----7--7--7--7--7--7-----------------------|
D|--7--7--7--7--7--7---7--7--7--7--7--7---9---11----7--7--7--7--7--7---7--7--7--7--7--7----| 
A|--5--5--5--5--5--5---7--7--7--7--7--7---7---9-----5--5--5--5--5--5---7--7--7--7--7--7----|
E|---------------------5--5--5--5--5--5--------------------------------5--5--5--5--5--5----|

e|-----------------------------------------------------------------------------------------|
B|-----------------------------------------------------------------------------------------|
G|--9--9--9--9--9--9---11--11--11--11--11--11----7--7--7--7--7--7--------------------------|
D|--9--9--9--9--9--9---11--11--11--11--11--11----7--7--7--7--7--7---7--7--7--7--7--7-------|
A|--7--7--7--7--7--7---9---9---9---9---9---9-----5--5--5--5--5--5---7--7--7--7--7--7-------|
E|------------------------------------------------------------------5--5--5--5--5--5-------|

END
e|-----------------------------------------------------------------------------------------|
B|-----------------------------------------------------------------------------------------|
G|-----------------------------------------------------------------------------------------|
D|--9--9---7-------------------------------------------------------------------------------|
A|--7--7---5---5---7-----------------------------------------------------------------------|
E|-------------5---7-----------------------------------------------------------------------|

************************************

| /   slide up
| \   slide down
| h   hammer-on
| p   pull-off
| ~   vibrato
| +   harmonic
| x   Mute note
| b   Bend
| pb  Pre-bend
| br  Bend release
| pbr Pre-bend release
| brb Bend release bend

************************************
Добавлено: 10.06.2016
Вам также может быть интересно:
Другие материалы по этой песне:
  • Аккорды и текст

Страница создана 10.06.2016
http://primanota.ru/rodgau-monotones/is-mir-egal-chords.htm
Привет, Гость.
Предлагаем пройти революционный курс по гитаре.
Подарок от PrimaNota.Ru, забирай!