PrimaNota.ru - самый крупный в мире бесплатный архив песенных текстов, аккордов, табулатур и нот


Roddy Woomble - As Still As I Watch Your Grave - текст песни, таба, видео

Регистрация Запомнить меня
Войти через:  Facebook Google Twitter Vk Yandex Mail.ru

Roddy Woomble - As Still As I Watch Your Grave - текст песни, таба, видео

Печатать
Просмотров: 171
----------------------------------------------------------------------------
               As Still As I Watch Your Grave - Roddy Woomble
----------------------------------------------------------------------------
tabbed by: acoustic-fish
tuning: EADGBe (standard)

intro:
e|--------------------------4-----------------------------4--------|
B|------------5---5-------------4-5------------5---5----5--5-------|
G|------6-------8-------6-----6----------6-------8------6---6------|
D|----6---------------6---6------------6---6------------6-------8--|
A|--4-------7-------4----------------4------/7--------4-4---4-4-6--|
E|-----------------------------------------------------------------|

e|-----------------------------------------------------------------|
B|-----------------------------------------------------------------|
G|--9~------11~------------------------8--8/9~---9-8---------------|
D|------------------9----9--11~----11---------------11-9--11~--11--|
A|--------------------11-------------------------------------------|
E|-----------------------------------------------------------------|

e|-----------------------------------------------------------------|
B|-----------------------------------------------------------------|
G|--9~------11~------------------------8--8/9~-----8~--------------|
D|------------------9----9--11~----11------------------------------|
A|--------------------11-------------------------------------------|
E|-----------------------------------------------------------------|


verse 1:
e|--------------------------4--------------------------------------|
B|------------5---5-------------4-5------------5---5----5----------|
G|------6-------8-------6-----6----------6-------8------6----------|
D|----6---------------6---6------------6---6------------6----------|
A|--4-------7-------4----------------4------/7--------4-4-----4-6--|
E|-----------------------------------------------------------------|
i know...        ...patterns because i live by the    sea   and what 

e|--------------------------4--------------------------------------|
B|------------5---5-------------4-5------------5---5----5----------|
G|------6-------8-------6-----6----------6-------8------6----------|
D|----6---------------6---6------------6---6------------6----------|
A|--4-------7-------4----------------4------/7--------4-4-----4-6--|
E|-----------------------------------------------------------------|
  i translate in    water         it won't...      ...haunt me

e|--------------------------4--------------------------------------|
B|------------5---5-------------4-5------------5---5----5----------|
G|------6-------8-------6-----6----------6-------8------6----------|
D|----6---------------6---6------------6---6------------6----------|
A|--4-------7-------4----------------4------/7--------4-4-----4-6--|
E|-----------------------------------------------------------------|
 so cut    another  pattern...    ...suitable...   ...me      and in

e|--------------------------4--------------------------------------|
B|------------5---5-------------4-5------------5---5----5----------|
G|------6-------8-------6-----6----------6-------8------6----------|
D|----6---------------6---6------------6---6------------6----------|
A|--4-------7-------4----------------4------/7--------4-4-----4-6--|
E|-----------------------------------------------------------------|
    your   illumination         is your apology


bridge:
e|-----------------------------------------------------------------|
B|--------------------5------5-----------------------5------5------|
G|----9-999---9-999---6-464--6-464---9-999---9-999---6-464--6-464--|
D|--9-9-999-9-9-999---6------6-----9-9-999-9-9-999---6------6------|
A|--7-7-777-6-6-666-4-4----4-4-----7-7-777-6-6-666-4-4----4-4------|
E|-----------------------------------------------------------------|
      What...    ...sleep            it's...    ...sleep          and i 


chorus 1:
e|-----------------------------------------------------------------|
B|----5--555000-000444-444555-555----5---555000-000444-444555-555--|
G|----6--666xxx-xxx444-444666-666----6---666xxx-xxx444-444666-666--|
D|----6--666222-222444-444777-777----6---666222-222444-444777-777--|
A|--4-4--444222-222222-222777-777--4-4---444222-222222-222777-777--|
E|----------000-000-------555-555-----------000-000-------555-555--|
    Watch...    ...over your face...     ...day...     ...place  as still as 

e|-----------------------------------------------------------------|
B|----5--555000-000444-444555-555----5---555000-000444-444555-555--|
G|----6--666xxx-xxx444-444666-666----6---666xxx-xxx444-444666-666--|
D|----6--666222-222444-444777-777----6---666222-222444-444777-777--|
A|--4-4--444222-222222-222777-777--4-4---444222-222222-222777-777--|
E|----------000-000-------555-555-----------000-000-------555-555--|
  i watch...    ...over...      ...should...    ...years...   ...days

e|-----------|
B|--555-555--|
G|--666-666--|
D|--777-777--|
A|--777-777--|
E|--555-555--|
           and you 

verse 2:
e|--------------------------4--------------------------------------|
B|------------5---5-------------4-5------------5---5----5----------|
G|------6-------8-------6-----6----------6-------8------6----------|
D|----6---------------6---6------------6---6------------6----------|
A|--4-------7-------4----------------4------/7--------4-4-----4-6--|
E|-----------------------------------------------------------------|
    live    in the  shadows of  the  evenings  you mislead...

e|--------------------------4--------------------------------------|
B|------------5---5-------------4-5------------5---5----5----------|
G|------6-------8-------6-----6----------6-------8------6----------|
D|----6---------------6---6------------6---6------------6----------|
A|--4-------7-------4----------------4------/7--------4-4-----4-6--|
E|-----------------------------------------------------------------|
 ...real to be   forgotten  if  you  choose......company      and i 

e|--------------------------4--------------------------------------|
B|------------5---5-------------4-5------------5---5----5----------|
G|------6-------8-------6-----6----------6-------8------6----------|
D|----6---------------6---6------------6---6------------6----------|
A|--4-------7-------4----------------4------/7--------4-4-----4-6--|
E|-----------------------------------------------------------------|
    run each finger through...    ...through...    ...sleep...

e|--------------------------4--------------------------------------|
B|------------5---5-------------4-5------------5---5----5----------|
G|------6-------8-------6-----6----------6-------8------6----------|
D|----6---------------6---6------------6---6------------6----------|
A|--4-------7-------4----------------4------/7--------4-4-----4-6--|
E|-----------------------------------------------------------------|
 ...first...     ...morning     and...             ...me


bridge:
e|-----------------------------------------------------------------|
B|--------------------5------5-----------------------5------5------|
G|----9-999---9-999---6-464--6-464---9-999---9-999---6-464--6-464--|
D|--9-9-999-9-9-999---6------6-----9-9-999-9-9-999---6------6------|
A|--7-7-777-6-6-666-4-4----4-4-----7-7-777-6-6-666-4-4----4-4------|
E|-----------------------------------------------------------------|
      What...    ...sleep            it's...    ...sleep          and i 


chorus 2:
e|-----------------------------------------------------------------|
B|----5--555000-000444-444555-555----5---555000-000444-444555-555--|
G|----6--666xxx-xxx444-444666-666----6---666xxx-xxx444-444666-666--|
D|----6--666222-222444-444777-777----6---666222-222444-444777-777--|
A|--4-4--444222-222222-222777-777--4-4---444222-222222-222777-777--|
E|----------000-000-------555-555-----------000-000-------555-555--|
    watch...    ...over...      ...longest...   ...fight......place...

e|-----------------------------------------------------------------|
B|----5--555000-000444-444555-555----5---555000-000444-444555-555--|
G|----6--666xxx-xxx444-444666-666----6---666xxx-xxx444-444666-666--|
D|----6--666222-222444-444777-777----6---666222-222444-444777-777--|
A|--4-4--444222-222222-222777-777--4-4---444222-222222-222777-777--|
E|----------000-000-------555-555-----------000-000-------555-555--|
 ...watch...    ...over...      ...should...    ...hours lost in days

e|-----------|
B|--555-555--|
G|--666-666--|
D|--777-777--|
A|--777-777--|
E|--555-555--|


solo:
I couldn't work this out, although you can improvise on this scale for two bars. 
e|-----------------------------------------------------9--11--12---|
B|------------------------------------------9--10--12--------------|
G|--------------------------------8--9--11-------------------------|
D|-------------------------9--11-----------------------------------|
A|--------------9--11--12------------------------------------------|
E|---9--11--12-----------------------------------------------------|

then play:
e|-----------------------------------------------------------------|
B|-----------------------------------------------------------------|
G|--9~------11~------------------------8--8/9~---9-8---------------|
D|------------------9----9--11~----11---------------11-9--11~--11--|
A|--------------------11-------------------------------------------|
E|-----------------------------------------------------------------|

e|-----------------------------------------------------------------|
B|-----------------------------------------------------------------|
G|--9~------11~------------------------8--8/9~-----8~--------------|
D|------------------9----9--11~----11------------------------------|
A|--------------------11-------------------------------------------|
E|-----------------------------------------------------------------|


chorus 3:
e|-----------------------------------------------------------------|
B|----5--555000-000444-444555-555----5---555000-000444-444555-555--|
G|----6--666xxx-xxx444-444666-666----6---666xxx-xxx444-444666-666--|
D|----6--666222-222444-444777-777----6---666222-222444-444777-777--|
A|--4-4--444222-222222-222777-777--4-4---444222-222222-222777-777--|
E|----------000-000-------555-555-----------000-000-------555-555--|
    watch...    ...over...      ...longest...   ...tries......place...

e|-----------------------------------------------------------------|
B|----5--555000-000444-444555-555----5---555000-000444-444555-555--|
G|----6--666xxx-xxx444-444666-666----6---666xxx-xxx444-444666-666--|
D|----6--666222-222444-444777-777----6---666222-222444-444777-777--|
A|--4-4--444222-222222-222777-777--4-4---444222-222222-222777-777--|
E|----------000-000-------555-555-----------000-000-------555-555--|
 ...watch...    ...over...      ...should...    ...hours passed like days

e|-----------|
B|--555-555--|
G|--666-666--|
D|--777-777--|
A|--777-777--|
E|--555-555--|


outro:
e|-----------------------------------------------------------------|
B|----5--555000-000444-444555-555----5---555000-000444-444555-555--|
G|----6--666xxx-xxx444-444666-666----6---666xxx-xxx444-444666-666--|
D|----6--666222-222444-444777-777----6---666222-222444-444777-777--|
A|--4-4--444222-222222-222777-777--4-4---444222-222222-222777-777--|
E|----------000-000-------555-555-----------000-000-------555-555--|

X8 (improvise over the top on the same scale as the solo)


then:
e|---------------------------------|
B|----5--555000-000444-444555-555--|
G|----6--666xxx-xxx444-444666-666--|
D|----6--666222-222444-444777-777--|
A|--4-4--444222-222222-222777-777--|
E|----------000-000-------555-555--|



enjoy!


============================================================================
lyrics:

i know all the old patterns
because i live by the sea
and what i translate in water
it won't come back to haunt me
so cut another pattern
to make a suitable friend of me
and in your illumination is your apology

what we keep of last night while we sleep
it's what we keep of last night
while we sleep

and i watch your grave
be written all over your face
on the longest day
when midnight tries to take my place
as still as i watch your face
be written all over your grave
should have passed like hours
passed like years but felt like days

and you live in the shadows
of the evenings you mislead
but they're too real to be forgotten
if you choose the right company
and i run each finger through the dust
and only through your hair in sleep
but it's like the first breath in the morning
and it brings the past back to me

what we keep of last night when we sleep
it depends what we keep of last night
while we sleep

and i watch your grave
be written all over your face
on the longest day
i watched people fight to take my place
as still as i watch your face
be written all over your grave
should have passed like years
passed like hours lost in days

and i watch your grave
be written all over your face
on the longest day
when midnight tries to take my place
as still as I watch your face
be written all over your grave
what should have passed like hours
passed like years passed like days
============================================================================
| / slide up 
| \ slide down 
| h hammer-on 
| p pull-off 
| ~ vibrato 
| + harmonic 
| x Mute note 
============================================================================
Добавлено: 27.05.2012
Другие материалы по этой песне:
  • Аккорды и текст

Страница создана 13.03.2012
http://primanota.ru/roddy-woomble/as-still-as-i-watch-your-grave-chords.htm
Привет, Гость.
Предлагаем пройти революционный курс по гитаре.
Подарок от PrimaNota.Ru, забирай!