PrimaNota.ru - самый крупный в мире бесплатный архив песенных текстов, аккордов, табулатур и нот


Rod Stewart - Why Does It Go On - текст песни, бас-таба, видео

Регистрация Запомнить меня
Войти через:  Facebook Google Twitter Vk Yandex Mail.ru

Rod Stewart - Why Does It Go On - текст песни, бас-таба, видео

Печатать
Просмотров: 154
Уроки эстрадного вокала в Санкт-Петербурге
Why Does It Go On
Rod Stewart
Written by Barry Mason; released as the B-side to "The Day Will Come".

Intro:
G|------ ------ ------ ------|------ ------ ------ ------|
D|---------------------------|---------------------------|
A|---------------------------|------------------0--1---2-|
E|---------------------------|---------------------------|



G|------ ------ ------ ------|------ ------ ------ ------|
D|---------------------------|---------------------------|
A|3----------3--3------------|1----------1--1------------|
E|---------------------------|---------------------------|



G|------ ------ ------ ------|------ ------ ------ ------|
D|---------------------------|---------------------------|
A|3----------3--3------------|1----------1--1------------|
E|---------------------------|---------------------------|
                                                       You

Verse:
G|------ ------ ------ ------|------ ------ ------ ------|
D|---------------------------|---------------------------|
A|3----------3--3------------|1----------1--1------------|
E|---------------------------|---------------------------|
  know ain't right         to beat a     man    when   down,
    it                                             he's

G|------ ------ ------ ------|------ ------ ------ ------|
D|---------------------------|---------------------------|
A|3----------3--3------------|1----------1--1------1---2-|
E|---------------------------|------------------3--------|
                                                       You


G|------ ------ ------ ------|------ ------ ------ ------|
D|---------------------------|---------------------------|
A|3----------3--3------------|1----------1--1------------|
E|---------------------------|---------------------------|
  know ain't right         to eat    when   hunger's around.
    it

G|------ ------ ------ ------|------ ------ ------ ------|
D|---------------------------|---------------------2-----|
A|3----------3--3------------|3----------3--3------------|
E|---------------------------|---------------------------|
                                                       It


G|------ ------ ------ ------|------ ------ ------ ------|
D|3------3------3------3-----|---------------------------|
A|---------------------------|---------------------0---3-|
E|---------------------------|3------3------3------------|
  keeps  on     worryin'   me,                     as  all


G|------ ------ ------ ------|------ ------ ------ ------|
D|---------------------------|---------------------------|
A|3------3------3------3---3-|0------0------0------1---2-|
E|---------------------------|---------------------------|
         around     I      see.             Still it goes on,

Refrain:
G|------ ------ ------ ------|------ ------ ------ ------|
D|---------------------------|---------------------------|
A|3----------3--3------------|1----------1--1------1---2-|
E|---------------------------|------------------3--------|
                           why              does it go


G|------ ------ ------ ------|------ ------ ------ ------|
D|---------------------------|---------------------------|
A|3----------3--3------------|1----------1--1------------|
E|---------------------------|---------------------------|
  on,                      Why              does it go on?


G|------ ------ ------ ------|------ ------ ------ ------|
D|---------------------------|---------------------------|
A|3----------3--3------------|3----------3---------1---2-|
E|---------------------------|---------------------------|
                                                       You

Verse:
G|------ ------ ------ ------|------ ------ ------ ------|
D|---------------------------|---------------------------|
A|3----------3--3------------|1----------1--1------1---2-|
E|---------------------------|------------------3--------|
  know ain't right         to take an -  other man's   life,
    it

G|------ ------ ------ ------|------ ------ ------ ------|
D|---------------------------|---------------------------|
A|3----------3--3------------|1----------1--1------1---2-|
E|---------------------------|------------------3--------|
                yeah!                                  You


G|------ ------ ------ ------|------ ------ ------ ------|
D|---------------------------|---------------------------|
A|3----------3--3------------|1----------1--1------1---2-|
E|---------------------------|------------------3--------|
  know ain't right         to take an -  other man's   wife.
    it

G|------ ------ ------ ------|------ ------ ------ ------|
D|---------------------------|---------------------------|
A|3----------3--3------------|3----------1--1------3-----|
E|---------------------------|---------------------------|



G|------ ------ ------ ------|------ ------ ------ ------|
D|3------3-------------------|---------------------------|
A|---------------------------|---------------------0---3-|
E|--------------1------1-----|3------3------3------------|
  Keeps  gettin' through to me,                    as  a-


G|------ ------ ------ ------|------ ------ ------ ------|
D|---------------------------|---------------------------|
A|3------3------3------3---3-|0------0------0------0-----|
E|---------------------------|---------------------------|
         ny- where  I      see.          Why does it go on,

Refrain:
G|------ ------ ------ ------|------ ------ ------ ------|
D|---------------------------|---------------------------|
A|3----------3--3------------|1----------1--1------1---2-|
E|---------------------------|------------------3--------|
                           why              does it go


G|------ ------ ------ ------|------ ------ ------ ------|
D|---------------------------|---------------------------|
A|3----------3--3------------|1----------1--1------1---2-|
E|---------------------------|------------------3--------|
  on,                      Why              does it go on?


G|------ ------ ------ ------|------ ------ ------ ------|
D|---------------------------|---------------------------|
A|3----------3--3------------|3----------3--3------------|
E|---------------------------|---------------------------|
                                                       They

Bridge:
G|------ ------ ------ ------|------ ------ ------ ------|
D|---------------------------|---------------------------|
A|5------5------5------5\----|3------3------3------3-----|
E|---------------------------|---------------------------|
  don't  want   love   to- day,                    it's


G|------ ------ ------ ------|------ ------ ------ ------|
D|---------------------------|---------------------------|
A|5------5------5------5-----|3---0----1----2---3----4---|
E|---------------------------|---------------------------|
      headin' all      the way,                        They'll


G|------ ------ ------ ------|------ ------ ------ ------|
D|---------------------------|---------------------------|
A|5------5------5------5\----|3------3------3------3-----|
E|---------------------------|---------------------------|
  burn   your   book and   pen -  cil,   boy,          and


G|------ ------ ------ ------|------ ------ ------ ------|
D|---------------------------|---------------------------|
A|5------5------5------5\----|---------------------------|
E|---------------------------|1------1---1--1------1-----|
  throw  your   mind   a - way.


G|------ ------ ------ ------|
D|---------------------------|
A|---------------------------|
E|3------3----------3--3-----|
                           A

Verse:
G|------ ------ ------ ------|------ ------ ------ ------|
D|---------------------------|---------------------------|
A|3----------3--3------------|1----------1--1------1---2-|
E|---------------------------|------------------3--------|
  man    don't  steal,     but  has  to  work   for his pay,


G|------ ------ ------ ------|------ ------ ------ ------|
D|---------------------------|---------------------------|
A|3----------3--3------------|1----------1--1------1---2-|
E|---------------------------|------------------3--------|
                  let me tell one thing,               A
                            you

G|------ ------ ------ ------|------ ------ ------ ------|
D|---------------------------|---------------------------|
A|3----------3--3------------|1----------1--1------------|
E|---------------------------|---------------------------|
  po- ker    man           deals     from   top    he  plays.
                                         the    when

G|------ ------ ------ ------|------ ------ ------ ------|
D|---------------------------|---------------------0---2-|
A|3----------3--3------------|1--h---3---3--3------------|
E|---------------------------|---------------------------|
                                                       But


G|------ ------ ------ ------|------ ------ ------ ------|
D|3------3------3------3-----|---------------------------|
A|---------------------------|---------------------0---3-|
E|---------------------------|3------3------3------------|
  all    good   things we  take,                we don't build,


G|------ ------ ------ ------|------ ------ ------ ------|
D|---------------------------|---------------------------|
A|3------3------3------3---3-|0------0------0------1---2-|
E|---------------------------|------------------3--------|
                we  just   break.        Why does it go on,

Refrain:
G|------ ------ ------ ------|------ ------ ------ ------|
D|---------------------------|---------------------------|
A|3----------3--3------------|1----------1--1------1---2-|
E|---------------------------|------------------3--------|
                           why              does it go on,


G|------ ------ ------ ------|------ ------ ------ ------|
D|---------------------------|---------------------------|
A|3----------3--3------------|1----------1--1------1---2-|
E|---------------------------|------------------3--------|
                           Why              does it go on?


G|------ ------ ------ ------|------ ------ ------ ------|
D|---------------------------|---------------------------|
A|3----------3--3------------|1--h---3---3--3------------|
E|---------------------------|---------------------------|
                                                       They

Bridge:
G|------ ------ ------ ------|------ ------ ------ ------|
D|---------------------------|---------------------------|
A|5------5------5------5-----|3------3------3------3-----|
E|---------------------------|---------------------------|
  don't  want   love   to- day,                    it's


G|------ ------ ------ ------|------ ------ ------ ------|
D|---------------------------|---------------------------|
A|5------5------5------5-----|3---0----1----2---3----4---|
E|---------------------------|---------------------------|
      headin' all      the way,                        They'll


G|------ ------ ------ ------|------ ------ ------ ------|
D|---------------------------|---------------------------|
A|5\-----3------5------5\----|3------3------3------3-----|
E|---------------------------|---------------------------|
  burn   your   book and   pen -  cil,   boy,          and


G|------ ------ ------ ------|------ ------ ------ ------|
D|---------------------------|---------------------------|
A|5------5------5------5\----|---------------------------|
E|---------------------------|1---1----1----1---1----1---|
  throw  your   mind   a - way.


G|------ ------ ------ ------|
D|---------------------------|
A|------------------0--1---2-|
E|3---3----3----3------------|
                           A

Verse:
G|------ ------ ------ ------|------ ------ ------ ------|
D|---------------------------|---------------------------|
A|3----------3--3------------|1----------1--1------1---2-|
E|---------------------------|------------------3--------|
  man    don't  steal,     but  has  to  work   for his pay,


G|------ ------ ------ ------|------ ------ ------ ------|
D|---------------------------|---------------------------|
A|3----------3--3------------|1----------1--1------1---2-|
E|---------------------------|------------------3--------|
                  let me tell one thing,               A
                            you

G|------ ------ ------ ------|------ ------ ------ ------|
D|---------------------------|---------------------------|
A|3----------3--3------------|1----------1--1------------|
E|---------------------------|---------------------------|
  po- ker    man           deals     from   top    he  plays.
                                         the    when

G|------ ------ ------ ------|------ ------ ------ ------|
D|---------------------------|---------------------------|
A|3----------3--3------------|1/3--------3--3------------|
E|---------------------------|---------------------------|
                                                       But


G|------ ------ ------ ------|------ ------ ------ ------|
D|3--------------------------|5--------------------------|
A|---------------------------|---------------------0---3-|
E|-------1------1------1-----|-------3------3------------|
  all    good   things we  take,                we don't build,


G|------ ------ ------ ------|------ ------ ------ ------|
D|---------------------------|---------------------------|
A|3------3------3------3---3-|---------------------------|
E|---------------------------|5------5------5---3--5-----|
                we  just   break.        Why does it go on,

Outro:
G|------ ------ ------ ------|------ ------ ------ ------|
D|---------------------------|---------------------------|
A|3----------3--3----------3-|1----------1--1------1---2-|
E|---------------------------|------------------3--------|
                           why              does it go on,


G|------ ------ ------ ------|------ ------ ------ ------|
D|---------------------------|---------------------------|
A|3----------3--3------------|1----------1--1------1---2-|
E|---------------------------|------------------3--------|
                           why              does it go on...
Repeat and fade out...

Please e-mail me for any corrections, or write a comment.
Добавлено: 03.11.2015
Другие материалы по этой песне:
  • Аккорды и текст

Страница создана 04.03.2012
http://primanota.ru/rod-stewart/why-does-it-go-on--chords.htm
Привет, Гость.
Предлагаем пройти революционный курс по гитаре.
Подарок от PrimaNota.Ru, забирай!