PrimaNota.ru - самый крупный в мире бесплатный архив песенных текстов, аккордов, табулатур и нот


Rocky Horror - Super Heroes - текст песни, таба, видео

Регистрация Запомнить меня
Войти через:  Facebook Google Twitter Vk Yandex Mail.ru

Rocky Horror - Super Heroes - текст песни, таба, видео

Печатать
Просмотров: 108
Уроки эстрадного вокала в Санкт-Петербурге
		   Author/Artist: Rocky Horror Picture Show
Title: Superheroes
Album: RHPS OST
Transcribed by: Tamir Haber
Email: haber_t@netvision.net.il

Chords:
Am:    xx7555
Am/G#: xx6555
Am/G:  xx5555
Am/F#: xx4555
F:     133211
E:     022100
Asus2: x02200
A5:    x022xx
A:     x02220
D:     xx0232
B:     x24442

Key:
h: hammer on
p: pull off
s: slide
b: bend
r: realese
~: virato

Intro (Piano):

Am                Am/G#               Am/G                Am/F# 
------8-7-8--7-8--------8-7-8-10--------------8-7-8--7-8------------10-8-7h8p7--
----5----------------5------------5---------5-------------------5---------------
--------------------------------------------------------------------------------
--------------------------------------------------------------------------------
--------------------------------------------------------------------------------
--------------------------------------------------------------------------------

(Elec. Guitar w/ Dist.):
  F        E               Am
8s5~------8s4b5r4----4~----4b5---4b5---7~--4b5--4b5---------------------------
------------------------------------------------------------------------------
------------------------------------------------------------------------------
------------------------------------------------------------------------------
------------------------------------------------------------------------------
------------------------------------------------------------------------------
                                                                              
Brad:
 
Am                        Am/G#  
 I've...                  God...
Am/G                       Am/F#
 To find...            I've...
  F                      E
 But all...          is down...
8s5~-------------------8s4~---------------------------------------------------
------------------------------------------------------------------------------
------------------------------------------------------------------------------
------------------------------------------------------------------------------
------------------------------------------------------------------------------
------------------------------------------------------------------------------ 

All:

    Am Asus2 A5
I'm ble -e-  ding...
--------4~----5~--------------------------------------------------------------
----------------------10b12--12b13--12b13r12s10-------------------------------
------------------------------------------------------------------------------
------------------------------------------------------------------------------
------------------------------------------------------------------------------
------------------------------------------------------------------------------ 

 
Janet:

Am                        Am/G#
 And...                   come...
Am/G                       Am/F#
 To taste...               not yet...
F             E
 And all...            is still..
 

 
All:
 
   Am Asus2 A5
Is fe -e-   ding...
 
------------------------------------------------------------------------------
----------------------10b12--12b13--12b13---12b14-----------------------------
------------------------------------------------------------------------------
------------------------------------------------------------------------------
------------------------------------------------------------------------------
------------------------------------------------------------------------------ 

A
Oooh...
------------------------------------------------------------------------------
14--14b15-15p14---------------------------------------------------------------
----------------14------------------------------------------------------------
------------------------------------------------------------------------------
------------------------------------------------------------------------------
------------------------------------------------------------------------------ 

D
Oooh...
------------------------------------------------------------------------------
14--14b15-15p14---------------------------------------------------------------
----------------14------------------------------------------------------------
------------------------------------------------------------------------------
------------------------------------------------------------------------------
------------------------------------------------------------------------------ 

A
Oooh...
------------------------------------------------------------------------------
14--14b15-15p14---------------------------------------------------------------
----------------14------------------------------------------------------------
------------------------------------------------------------------------------
------------------------------------------------------------------------------
------------------------------------------------------------------------------  

D
Oooh...
------------------------------------------------------------------------------
14--14b15-15p14---------------------------------------------------------------
----------------14------------------------------------------------------------
------------------------------------------------------------------------------
------------------------------------------------------------------------------
------------------------------------------------------------------------------ 

A
Oooh...
------------------------------------------------------------------------------
14--14b15-15p14---------------------------------------------------------------
----------------14------------------------------------------------------------
------------------------------------------------------------------------------
------------------------------------------------------------------------------
------------------------------------------------------------------------------ 

D
Oooh...
------------------------------------------------------------------------------
14--14b15-15p14---------------------------------------------------------------
----------------14------------------------------------------------------------
------------------------------------------------------------------------------
------------------------------------------------------------------------------
------------------------------------------------------------------------------ 

A
Oooh...
------------------------------------------------------------------------------
14--14b15-15p14---------------------------------------------------------------
----------------14------------------------------------------------------------
------------------------------------------------------------------------------
------------------------------------------------------------------------------
------------------------------------------------------------------------------ 

D
Oooh...
------------------------------------------------------------------------------
14--14b15-15p14---------------------------------------------------------------
----------------14------------------------------------------------------------
------------------------------------------------------------------------------
------------------------------------------------------------------------------
------------------------------------------------------------------------------ 

A
Oooh...
------------------------------------------------------------------------------
14--14b15-15p14---------------------------------------------------------------
----------------14------------------------------------------------------------
------------------------------------------------------------------------------
------------------------------------------------------------------------------
------------------------------------------------------------------------------ 

D      B     E  
Oooh...                    aaah, aaah.
-----------------------------------------------------------------------------
14--14b15-15p14------------14b16--16b17--------------------------------------
----------------14-----------------------------------------------------------
-----------------------------------------------------------------------------
-----------------------------------------------------------------------------
-----------------------------------------------------------------------------  


Narrator:
(same as 1st verse)
 
All:
Am Asus2  A5
Me -a-    ning.

     
Добавлено: 13.10.2013
Другие материалы по этой песне:

Страница создана 22.02.2012
http://primanota.ru/rocky-horror/super-heroes-chords.htm
Привет, Гость.
Предлагаем пройти революционный курс по гитаре.
Подарок от PrimaNota.Ru, забирай!