PrimaNota.ru - самый крупный в мире бесплатный архив песенных текстов, аккордов, табулатур и нот


Rocky Horror - I Can Make You A Man - аккорды и текст, видео

Регистрация Запомнить меня
Войти через:  Facebook Google Twitter Vk Yandex Mail.ru

Rocky Horror - I Can Make You A Man - аккорды и текст, видео

Печатать
Просмотров: 184
Уроки эстрадного вокала в Санкт-Петербурге
I Can Make You A Man
Rocky Horror
		   Author/Artist: Rocky Horror Picture Show
Title: I Can Make You A Man
Album: RHPS OST
Transcribed by: Tamir Haber
Email: haber_t@netvision.net.il

I CAN MAKE YOU A MAN (part I)
 
Chords: 
C:    x32010
E:    022100
Am:   x02210
F:    133211
D:    xx0232
A:    x02220
G:    320033
Am/G: 3x2210 
Dm:   xx0231
D#:   x68886
Bb:   x13331
Gm:   355333

Key:
~ - vibrato
! - short stroke of the chord

Frank:
  C                 E
A weakling...       ninety-eight...
         Am
Will get sand...
     F! 
When kicked...
    F                      D
And soon...                determined chin...
    C                          A
The sweat...             as he works...
                       D
Will make him...

         G
And with massage...
         F              C
He'll be pink...        clean
           G          F
He'll be a strong...
 
        C
-But the wrong...
  
Frank:
          C               E
He'll eat nutritious...
    Am                     Am/G
And swallow...
F          D
  Try to build...                    chest...
C                           A 
  Such an...                knew of...
   Dm                  G
In just...
                 F     C   G
I can...         maaaaan.
         C              E
He'll do press...
       Am                 Am/G
C the smearch...
   F                      D
He thinks...              must be...
C                              A 
  Such strenuous...            don't understand...
        Dm                   G                           F     C
When in just              ...oh baby...                  maaaaan.


I CAN MAKE YOU A MAN (part II)
 

 
Frank:
      F            D#
But a deltoid...
 F               D#
A hot...         tricep...
         F      D#
Makes me...
                 Bb                       G
Makes me...      take Charles...           ha-ha-hand.
   C                              F                   D#    Bb
In just             ... oh, baby ...                  maaaaaan.
F                D#          F            D# 
  I don't...      dissention...            tension.
 
Bb            G
-I'm a...
 
   C               F                 D#    Bb
In just...         I can...          maaaaaan.
          G
Dig it...
   C               F                 Gm
In just...         I can...          man.
 
(Elec. Guitar w/ Dist.):
--------------------------------------------------------------------
--------------------------------------------------------------------
--15~--14~----------------------------------------------------------
-----------14--17-15------------------------------------------------
---------------------18-15----------15----17------------------------
---------------------------18-17-18----13------6-8--10-11-13-17-----
                                                                              

------------------------------------------------------------------------------
------------------------------------------------------------------------------
--15~-14~----------------------------------------15~--------------------------
----------14-17-15------------------------------------------------------------
-------------------18-15----------17--15--17-15-------------------------------
-------------------------18-17-18---------------------------------------------
                                                                             


     
Добавлено: 11.08.2013
Другие материалы по этой песне:
  • Аккорды и текст

Страница создана 01.04.2012
http://primanota.ru/rocky-horror/i-can-make-you-a-man-chords.htm
Привет, Гость.
Предлагаем пройти революционный курс по гитаре.
Подарок от PrimaNota.Ru, забирай!