PrimaNota.ru - самый крупный в мире бесплатный архив песенных текстов, аккордов, табулатур и нот


Rocky Gray - Clone Mutation - Killing Floor 2 - таба, видео

Регистрация Запомнить меня
Войти через:  Facebook Google Twitter Vk Yandex Mail.ru

Rocky Gray - Clone Mutation - Killing Floor 2 - таба, видео

Печатать
Просмотров: 56
-------------------------------------------------------------------------------
      Clone Mutation --- Rocky Gray, Killing Floor 2 (Video Game Sound Track)
-------------------------------------------------------------------------------
Tabbed by: Afton (Jayson)
E-mail: aftonone@yahoo.com

Tuning:Drop C#

Unfortunately, I can't tab the lead part due to my guitar "incompetence".
Anyway hope this makes up for it.  This song plays quite fast takes some getting used to.

Play the whole thing through twice. Repeat parts as necessary.


===============================================================================
Part I                                   3x                                  1x
d#|----------------------------------------|----------------------------------|
A#|----------------------------------------|----------------------------------|
F#|----------------------------------------|-------------------------3-4-5-6--|
C#|--0----0----0----0----------------------|--0----0----0----0-------3-4-5-6--|
G#|--0----0----0----0------7h9p7--4/5------|--0----0----0----0-------1-2-3-4--|
C#|--0--0-0--0-0--0-0--0-------------------|--0--0-0--0-0--0-0--0-------------|
        *    *    *    *                         *    *    *    *
===============================================================================
Part II
                                                                             4x
d#|---------------------------------------------------------------------------|
A#|---------------------------------------------------------------------------|
F#|----7~~---7-7-7-7-10-10-10-10----6----3------------------------------------|
C#|----7~~---7-7-7-7-10-10-10-10----6----3------------------------------------|
G#|----5~~---5-5-5-5-8--8--8--8-----4~~--1~~----------------------------------|
C#|---------------------------------------------------------------------------|
             * * * * *  *  *  *
===============================================================================
Part III:

                                        8x
d#|--------------------------------------|
A#|--------------------------------------|
F#|--------------------------------------|
C#|--1-1-1-0-0-0--3-3-2-2-2-2-4-4-3-3----|
G#|--1-1-1-0-0-0--3-3-2-2-2-2-4-4-3-3----|
C#|--1-1-1-0-0-0--3-3-2-2-2-2-4-4-3-3----|

================================================================================
Part IV:
                              7x                                             1x
d#|-----------------------------|---------------------------------------------|
A#|-----------------------------|---------------------------------------------|
F#|-----------------------------|---------------------------------------------|
C#|--0-0-0--0-0--0-0--0--0-0----|---0-0--0-0--0-0--0-0------------------------|
G#|--0-0-0--0-0--0-0--0--0-0----|---0-0--0-0--0-0--0-0------------------------|
C#|--0-0-0--0-0--0-0--0--0-0----|---0-0--0-0--0-0--0-0------------------------|
            * *       *                  
================================================================================

Part V:
                              7x                                             1x
d#|-----------------------------|---------------------------------------------|
A#|-----------------------------|---------------------------------------------|
F#|-----------------------------|---------------------------------------------|
C#|--0-0-0--0-0--0-0--0--0-0----|---0-0--0-0--0-0--0-0------------------------|
G#|--0-0-0--0-0--0-0--0--0-0----|---0-0--0-0--0-0--0-0------------------------|
C#|--0-0-0--0-0--0-0--0--0-0----|---0-0--0-0--0-0--0-0------------------------|
            * *       *
Background Lead part:
d#|---------------------------------------------------------------------------|
D#|----7~~~---10~~~---11~~~--12~~~--------------------------------------------|
A#|---------------------------------------------------------------------------|
C#|---------------------------------------------------------------------------|
G#|---------------------------------------------------------------------------|
C#|---------------------------------------------------------------------------|
===============================================================================

************************************

| /   slide up
| \   slide down
| *   palm mute
| h   hammer-on
| p   pull-off
| ~   let ring
| +   harmonic
| b   Bend
| pb  Pre-bend
| br  Bend release
| pbr Pre-bend release
| brb Bend release bend

************************************
Добавлено: 18.06.2016
Другие материалы по этой песне:
  • Аккорды и текст

Страница создана 18.06.2016
http://primanota.ru/rocky-gray/clone-mutation-killing-floor-2-chords.htm
Привет, Гость.
Предлагаем пройти революционный курс по гитаре.
Подарок от PrimaNota.Ru, забирай!