PrimaNota.ru - самый крупный в мире бесплатный архив песенных текстов, аккордов, табулатур и нот


Rocksteddy - Singsing Bulate - аккорды и текст, таба, видео

Регистрация Запомнить меня
Войти через:  Facebook Google Twitter Vk Yandex Mail.ru

Rocksteddy - Singsing Bulate - аккорды и текст, таба, видео

Печатать
Просмотров: 84
Уроки эстрадного вокала в Санкт-Петербурге
Singsing Bulate
Rocksteddy
Tabbed by: Rodel F. Fariñas (OlongaPO)
Friendster account: rain_aien0502@yahoo.com
Contact #: 09196998754

Intro: Drumbeat

Then...

e--------------------------------------------------------I
b--------------------------------------------------------I
g--------------------------------------------------------I
d--------------------------------------------------------I
a----131---1-31---131---1-31---131---1-31---131----------I
E--33---3-3-----33---3-3-----33---3-3-----33---3(hold)---I


G   D               Em
Umpisa pa lang ng klase
            C
Tayo na magkatabi
G    D         Em
Nagtaka ako sayo't
         C
Nagduda tayo'y nag PE

G            D
Bakit di ka nakaPE uniform
G           D
Naglaro ka nang ikaw ay nakapantalon

refrain:
C...
Alam ko na kung bakit
C...
Bakit ka parang may sabit
Bm            C
Bistado ko na ang iyong
D(hold)
sikret na malupit

play this before chorus

e----------------I
b----------------I
g----------------I
d----------------I
a--5-32-0-32-0---I
E-------------3--I

Chorus:
G
Di ko yan alam
Am
Meron ka pala
Bm
Tinatago dyan
        C
Huling huli ka sa akto
G
Akala ko bato
   Am
Nagkamali ako
    Bm
Ang nasa singit mo'y
     C
singsing bulate
G
Di ko yan alam
Am
Meron ka pala
Bm
Tinatago dyan
        C
Huling huli ka sa akto
G
Akala ko bato
   Am
Nagkamali ako
    Bm
Ang nasa singit mo'y
     C
singsing bulate

e------------------------------I
b------------------------------I
g------------------------------I
d------------------------------I
a----131---1-31----131---------I
E--33---3-3----3-33---3(hold)--I


G        D             Em
Sumama tayo minsan magfieldtrip
              C
swimming tayo dun sa beach
G           D            Em
Binilihan kita ng salbabida
     C
at 2pis bikini

G            D
Laking gulat na ikaw ay lumusong
G            D
Dun sa dagat nagswimming
kang nakapantalon

refrain:
C...
Alam ko na kung bakit
C...
Bakit ka parang may sabit
Bm            C
Bistado ko na ang iyong
D(hold)
sikret na malupit

Chorus:
G
Di ko yan alam
Am
Meron ka pala
Bm
Tinatago dyan
        C
Huling huli ka sa akto
G
Akala ko bato
   Am
Nagkamali ako
    Bm
Ang nasa singit mo'y
     C
singsing bulate
G
Di ko yan alam
Am
Meron ka pala
Bm
Tinatago dyan
        C
Huling huli ka sa akto
G
Akala ko bato
   Am
Nagkamali ako
    Bm
Ang nasa singit mo'y
     C
singsing bulate

===adliB===

Chorus:
G
Di ko yan alam
Am
Meron ka pala
Bm
Tinatago dyan
        C
Huling huli ka sa akto
G
Akala ko bato
   Am
Nagkamali ako
    Bm
Ang nasa singit mo'y
     C
singsing bulate
G
Di ko yan alam
Am
Meron ka pala
Bm
Tinatago dyan
        C
Huling huli ka sa akto
G
Akala ko bato
   Am
Nagkamali ako
    Bm
Ang nasa singit mo'y
     C
singsing bulate
G
Di ko yan alam
Am
Meron ka pala
Bm
Tinatago dyan
        C
Huling huli ka sa akto
G
Akala ko bato
   Am
Nagkamali ako
    Bm
Ang nasa singit mo'y
     C
singsing bulate

e------------------------------I
b------------------------------I
g------------------------------I
d------------------------------I
a----131---1-31----131---------I
E--33---3-3----3-33---3(hold)--I

[fin]
Добавлено: 19.11.2013
Другие материалы по этой песне:
  • Аккорды и текст

Страница создана 25.07.2013
http://primanota.ru/rocksteddy/singsing-bulate-chords.htm
Привет, Гость.
Предлагаем пройти революционный курс по гитаре.
Подарок от PrimaNota.Ru, забирай!