PrimaNota.ru - самый крупный в мире бесплатный архив песенных текстов, аккордов, табулатур и нот


Rocksteddy - No Touch - аккорды и текст, таба, бас-таба, видео

Регистрация Запомнить меня
Войти через:  Facebook Google Twitter Vk Yandex Mail.ru

Rocksteddy - No Touch - аккорды и текст, таба, бас-таба, видео

Печатать
Просмотров: 133
No Touch
Rocksteddy
No Touch

Rocksteddy
intro A A D A


 UNO , DOS , TRES ,CUATRO!!!!!....
  A
e -------------------------------------------------[
b -------------------------------------------------[
g---------------2-2--------------------------------[
D --------2-4-2---4-2-2-4-2------------------------[
A ----2-4------------------------------------------[
E --5----------------------------------------------[


   D
 e -----------------------------------------------[
 b--------------33--------------------------------[
 g--------2-4-2---4-2-2-4-2-----------------------[
 d----2-4-----------------------------------------[
 a--5---------------------------------------------[
 e------------------------------------------------[




verse
A
Dead na dead talaga ako
A
sa mga pakembot-kembot mO
D
kapag ikaw ay ngumingiti
A
ako
Добавлено: 19.12.2013
Другие материалы по этой песне:
  • Аккорды и текст

Страница создана 23.07.2012
http://primanota.ru/rocksteddy/no-touch-chords.htm
Привет, Гость.
Предлагаем пройти революционный курс по гитаре.
Подарок от PrimaNota.Ru, забирай!