PrimaNota.ru - самый крупный в мире бесплатный архив песенных текстов, аккордов, табулатур и нот


Rocketship - Lets Go Away - таба, видео

Регистрация Запомнить меня
Войти через:  Facebook Google Twitter Vk Yandex Mail.ru

Rocketship - Lets Go Away - таба, видео

Печатать
Просмотров: 66
-------------------------------------------------------------------------------
                       Let's Go Away - Rocketship
-------------------------------------------------------------------------------

Tuning: Drop D

e|---------------------------------------------------------------------------|
B|---------------------------------------------------------------------------|
G|---------------------------------------------------------------------------|
D|---------------------------------------------------------------------------|
A|-------0-----2--0-----0----------------------------------------------------| 2x
D|--0-------4--------4-------------------------------------------------------|

e|---------------------------------------------------------------------------|
B|---------------------------------------------------------------------------|
G|---------------------------------------------------------------------------|
D|---------------------------------------------------------------------------|
A|-------0-----2--0-----0----------------------------------------------------|
D|--0-------4--------4------0------------------------------------------------|

i'm just waitin' 
i'm just waitin' in the cold wet snow
e|---------------------------------------------------------------------------|
B|---------------------------------------------------------------------------|
G|---------------------------------------------------------------------------|
D|---------------------------------------------------------------------------|
A|-------0-----2--0-----0----------------------------------------------------| 4x
D|--0-------4--------4-------------------------------------------------------|


i'm just waitin' 
i'm just waitin' for my love
e|---------------------------------------------------------------------------|
B|---------------------------------------------------------------------------|
G|---------------------------------------------------------------------------|
D|---------------------------------------------------------------------------|
A|-------0-----2--0-----0----------------------------------------------------| 4x
D|--0-------4--------4-------------------------------------------------------|

so we can go away
so we can go away to another day
e|---------------------------------------------------------------------------|
B|---------------------------------------------------------------------------|
G|---------------------------------------------------------------------------|
D|---------------------------------------------------------------------------|
A|---------------------------------------------------------------------------| 2x
D|--2-2-2-2-2-2-4-4-4-4-4-4-5-5-5-5-5-5-7-7-7-7-7-7--------------------------|

e|---------------------------------------------------------------------------|
B|---------------------------------------------------------------------------|
G|---------------------------------------------------------------------------|
D|---------------------------------------------------------------------------|
A|-------0-----2--0-----0----------------------------------------------------|
D|--0-------4--------4------0------------------------------------------------|

i'm just waitin' 
i'm just waitin' for my love to come
e|---------------------------------------------------------------------------|
B|---------------------------------------------------------------------------|
G|---------------------------------------------------------------------------|
D|---------------------------------------------------------------------------|
A|-------0-----2--0-----0----------------------------------------------------| 4x
D|--0-------4--------4-------------------------------------------------------|

i've been waitin
i've been waitin for so long
e|---------------------------------------------------------------------------|
B|---------------------------------------------------------------------------|
G|---------------------------------------------------------------------------|
D|---------------------------------------------------------------------------|
A|-------0-----2--0-----0----------------------------------------------------| 4x
D|--0-------4--------4-------------------------------------------------------|

so we can go away
so we can go away to a happy day

e|---------------------------------------------------------------------------|
B|---------------------------------------------------------------------------|
G|---------------------------------------------------------------------------|
D|---------------------------------------------------------------------------|
A|---------------------------------------------------------------------------| 2x
D|--2-2-2-2-2-2-4-4-4-4-4-4-5-5-5-5-5-5-7-7-7-7-7-7--------------------------|

e|---------------------------------------------------------------------------|
B|---------------------------------------------------------------------------|
G|---------------------------------------------------------------------------|
D|---------------------------------------------------------------------------|
A|-------0-----2--0-----0----------------------------------------------------|
D|--0-------4--------4------0------------------------------------------------|

Here the main riff continues but a layer is added:
e|---------------------------------------------------------------------------|
B|---------------------------------------------------------------------------|
G|-------6-----7--6-----6----------------------------------------------------|
D|--4-------7--------7-------------------------------------------------------|
A|---------------------------------------------------------------------------|
D|---------------------------------------------------------------------------|

This continues to the end
Добавлено: 06.06.2016
Другие материалы по этой песне:
  • Аккорды и текст

Страница создана 06.06.2016
http://primanota.ru/rocketship/lets-go-away-chords.htm
Привет, Гость.
Предлагаем пройти революционный курс по гитаре.
Подарок от PrimaNota.Ru, забирай!