PrimaNota.ru - самый крупный в мире бесплатный архив песенных текстов, аккордов, табулатур и нот


Rocketboy - The Siren Song - таба, видео

Регистрация Запомнить меня
Войти через:  Facebook Google Twitter Vk Yandex Mail.ru

Rocketboy - The Siren Song - таба, видео

Печатать
Просмотров: 90
Уроки эстрадного вокала в Санкт-Петербурге
		   The Siren Song
Rocketboy

The Chord progression is pretty simple, but I'm not really sure what to
call these chords.(I'm new at this...)

G----320033
D----xxx232
C----032010

Repeat this for the beginning verse.
           [G]              [G]                 [D]                [D]
e []-------2-------------2-------------2-------------2---------
B[]------3--3--3-----3---3--3------3---3--3-----3---3--3---
G[]---0------0-----0-------0-----2-------2-----2------2-----
D[]-----------------------------0-------------0---------------
A[]------------------------------------------------------------
E []-2------------2--------------------------------------------

Play this for the beginning chorus:
     [C]                 [G]              [D]
e[]---------0----------3-----------2---------------
B[]------1---1--1---3--3--3-----3--3--3---------(repeat)
G[]---0-------0----0-----0-----2-----2-----------
D[]----------------------------0-------------------
A[]-3-------------2--------------------------------
E[]-------------------------------------------------


          G                                                 D
When I get home       I think I'm going to cry a bit.
          G                                            D
When I get home       I think I'll say I'm sorry

C
Hey Papa it happened again
   G                                      D
I went outside to play, and I saw the light...... far away.
C
I heard it call me out,
   G                                     D
I heard the siren song and my longing....  dragged me away.
                                   C                          G
But still you want me back.

The rest of the song is just like this and easy to figure out.  Note
that when playing the D put your pinky finger down and lift up and then
lift your middle finger and put it back down.        If anyone has any
suggestions in helping me play better let me know.
My  Email is:     215985@sbuniv.edu

Noble Hower
     
Добавлено: 01.09.2013
Другие материалы по этой песне:
  • Аккорды и текст

Страница создана 01.09.2013
http://primanota.ru/rocketboy/the-siren-song-chords.htm
Привет, Гость.
Предлагаем пройти революционный курс по гитаре.
Подарок от PrimaNota.Ru, забирай!