PrimaNota.ru - самый крупный в мире бесплатный архив песенных текстов, аккордов, табулатур и нот


Rocketboy - Highdive - таба, видео

Регистрация Запомнить меня
Войти через:  Facebook Google Twitter Vk Yandex Mail.ru

Rocketboy - Highdive - таба, видео

Печатать
Просмотров: 74
Уроки эстрадного вокала в Санкт-Петербурге
		   ROCKETBOY
High Dive
Transcribed:peach@arn.net

*Guitar1(Dist.)
   P.M  P.M  P.M  P.M  P.M  P.M  P.M  P.M  P.M     (P.M -  -  -  -  -  -  - - )
e|--------------------------------------------|-------------------------------|
B|--------------------------------------------|-(0)-(0)-----------------------|
G|--------------------------------------------|-------------------------------|
D|--------------------7-------------------7---|--7---7-7-7-7-7-7-7-7-7-7-7-7-7|
A|-----0----0----0---------0----0----0--------|--7---7-7-7-7-7-7-7-7-7-7-7-7-7|
E|--5----5----5----5----5----5----5----5----5-|--5---5-5-5-5-5-5-5-5-5-5-5-5-5|

    Harm.
e|----------------------------------------------------------------------------|
B|----------------------------------------------------------------------------|
G|----------------------------------------------------------------------------|
D|--(12)-\--7-7-7-7---7-7-7-7-7-7-\-9--(7)--7-7-7-7-----7-7-7-7-7-\-9-(7)-----|
A|--(12)-\--7-7-7-7-x-7-7--7--7-7-\-9--(7)--7-7-7-7-x---7--7--7-7-\-9-(7)-----|
E|--(12)-\--5-5-5-5-x-0-5-(0)-5-5-\-7---0---5-5-5-5-x-0-5-(0)-5-5-\-7--0------|

**Guitar2(Flanger/Overdrive)
e|----------------------------------------------------------------------------|
B|----------------------------------------------------------------------------|
G|----------------------------------------------------------------------------|
D|----------7-7-7-7-x-7-7--7--7-7-\-9--(5)--7-7-7-7-x---7--7--7-7-\-9-(5)-----|
A|----------------------------------------------------------------------------|
E|----------------------------------------------------------------------------|
                                    (Guitar 1 and 2)
e|--------------------------------------------------|
B|--------------------------------------------------|
G|--------------------------------------------------|
D|--7-7-7-7---7-7-7-7-7-7-\-9--(7)--10-10--9-9--7-7-|
A|--7-7-7-7-x-7-7--7--7-7-\-9--(7)--10-10--9-9--7-7-|
E|--5-5-5-5-x-0-5-(0)-5-5-\-7---0----8-8---7-7--5-5-|     
Добавлено: 21.07.2013
Вам также может быть интересно:
Другие материалы по этой песне:
  • Аккорды и текст

Страница создана 21.07.2013
http://primanota.ru/rocketboy/highdive-chords.htm
Привет, Гость.
Предлагаем пройти революционный курс по гитаре.
Подарок от PrimaNota.Ru, забирай!