PrimaNota.ru - самый крупный в мире бесплатный архив песенных текстов, аккордов, табулатур и нот


Rocket From The Crypt - Sturdy Wrists - таба, видео

Регистрация Запомнить меня
Войти через:  Facebook Google Twitter Vk Yandex Mail.ru

Rocket From The Crypt - Sturdy Wrists - таба, видео

Печатать
Просмотров: 71
Авторы музыки: Rocket From the Crypt
Авторы текста: Rocket From the Crypt
-------------------------------------------------------------------------------
                             Sturdy Wrists - Rocket From the Crypt
-------------------------------------------------------------------------------
Tabbed by: smitty 
E-mail: drivelikesmitty@hotmail.com
Source: http://www.xtrmntr.com/rockettabs/tabs/sturdywrists.html

Tuning: standard

intro/verse:
e|-------------------------------------------------------------:|
B|-------------------------------------------------------------:|
G|-------------------------------------------------------------:|
A|---5-5-5---5-5-5---5-5-5-5-5-5-5-----------------------------:|
D|---5-5-5---5-5-5---5-5-5-5-5-5-5----repeat throughout verse--:|
E|---3-3-3---3-3-3---3-3-3-3-3-3-3-----------------------------:|


chorus:
e|------------------------:|
B|------------------------:|
G|---8-------------5------:|
D|---8---8-8---3-3-5-5----:|
A|---6---8-8---3-3-3-5----:|
E|-------6-6---1-1---3----:|
Добавлено: 14.11.2015
Другие материалы по этой песне:
  • Аккорды и текст

Страница создана 14.11.2015
http://primanota.ru/rocket-from-the-crypt/sturdy-wrists-chords.htm
Привет, Гость.
Предлагаем пройти революционный курс по гитаре.
Подарок от PrimaNota.Ru, забирай!