PrimaNota.ru - самый крупный в мире бесплатный архив песенных текстов, аккордов, табулатур и нот


Rocket From The Crypt - Slumber Queen - таба, видео

Регистрация Запомнить меня
Войти через:  Facebook Google Twitter Vk Yandex Mail.ru

Rocket From The Crypt - Slumber Queen - таба, видео

Печатать
Просмотров: 88
-------------------------------------------------------------------------------
                             SLUMBER QUEEN - Rocket From the Crypt
-------------------------------------------------------------------------------
Tabbed by: kevin lang
E-mail: doggslice39@hotmail.com
Source: http://www.xtrmntr.com/rockettabs/tabs/slumberqueen.html

Tuning: standard

verse
e|--0----0----0----|
B|--0----1----2----|   strum each chord once and let it ring.
G|--1----2----3----|
D|--2----2----4----|
A|--2----0----4----|
E|--0--------------|

bridge
guitar one
e|--------------------|
B|--------------------|
G|-----------5-5-5-5--|
D|--5-5-5-5--5-5-5-5--|
A|--5-5-5-5--3-3-3-3--|
E|--3-3-3-3--3-3-3-3--|

guitar two
e|--3-3-3-3--3-3-3-3--|
B|--3-3-3-3--3-3-3-3--|
G|--------------------|
D|--------------------|
A|--------------------|
E|--------------------|

chorus
e|--0---0-0-----------0---0-0------------------|
B|--0---3-3-----------0---3-3------------------|
G|--1-------4-4-5-----1-------2-2-5-----5-6-7--|
D|--2-------4-4-5-----2-------2-2-5-----5-6-7--|
A|--2-------2-2-3-----2-------0-0-3-----3-4-5--|
E|--0-------2-2-3-----0------------------------|

ending
e|------------------------------------------|
B|------------------------------------------|
G|--9-9-9-9--12-12-11-11--9-9-9-9--5-5-7-7--|
D|--9-9-9-9--12-12-11-11--9-9-9-9--5-5-7-7--|
A|--7-7-7-7--10-10--9--9--7-7-7-7--3-3-5-5--|
E|------------------------------------------|
Добавлено: 14.11.2015
Вам также может быть интересно:
Другие материалы по этой песне:
  • Аккорды и текст

Страница создана 14.11.2015
http://primanota.ru/rocket-from-the-crypt/slumber-queen-chords.htm
Привет, Гость.
Предлагаем пройти революционный курс по гитаре.
Подарок от PrimaNota.Ru, забирай!