PrimaNota.ru - самый крупный в мире бесплатный архив песенных текстов, аккордов, табулатур и нот


Rock N Roll Soldiers - Water Tower - таба, видео

Регистрация Запомнить меня
Войти через:  Facebook Google Twitter Vk Yandex Mail.ru

Rock N Roll Soldiers - Water Tower - таба, видео

Печатать
Просмотров: 66
---------------------------------------------------------------------------
                     WATER TOWER - Rock 'n' Roll Soldiers
---------------------------------------------------------------------------
Tabbed by: Petr Hynek
E-mail: sarge.cz@gmail.com

Tuning: Standard


Intro (part 1)
e|-----------------------------------------------------------------|
B|-----------------------------------------------------------------|
G|---6-------4-------4---------------6-------4---------------------|
D|-----4-6-----6-4-----4-6---7-4-------4-6-----6-4---7---7---7-----|(x4)
A|-4-------7---------------------7-4-------7-----------------------|
E|-----------------7-------5-----------------------5---5---5---5-7-|

Intro (part 2)
e|-----|      |-----|      |-----|       |-----|
B|-----|      |-----|      |-----|       |-----|
G|-----|      |-----|      |-----|       |-----|
D|---9-|(x8)  |---6-|(x4)  |-----|(x12)  |-----|
A|-7---|      |-4---|      |---7-|       |-----|
E|-----|      |-----|      |-5---|       |-4-4-|


Verse 1 (part 1)
e|-----------------------------------------------------------------|
B|-----------------------------------------------------------------|
G|---6-------4-------4---------------6-------4---------------------|
D|-----4-6-----6-4-----4-6---7-4-------4-6-----6-4---7---7---7-----|(x4)
A|-4-------7---------------------7-4-------7-----------------------|
E|-----------------7-------5-----------------------5---5---5---5-7-|

Verse 1 (part 2)
e|-----|      |-----|      |-----|       |-----|
B|-----|      |-----|      |-----|       |-----|
G|-----|      |-----|      |-----|       |-----|
D|---9-|(x8)  |---6-|(x4)  |-----|(x12)  |-----|
A|-7---|      |-4---|      |---7-|       |-6-6-|
E|-----|      |-----|      |-5---|       |-4-4-|


Chorus                         
e|------------------------------------|      |----------|
B|------------------------------------|      |----------|
G|-66666666----------99999999---------|      |--6-------|
D|-66666666-77777777-99999999-64-5-6-6|(x4)  |-664-5-6-6|
A|-44444444-77777777-77777777-64-5-6-6|      |-644-5-6-6|
E|----------55555555----------42-3-4-4|      |-4-2-3-4-4|


Bridge
e|-----|      |-----|      |-----|       |-----|
B|-----|      |-----|      |-----|       |-----|
G|-----|      |-----|      |-----|       |-----|
D|---9-|(x8)  |---6-|(x4)  |-----|(x12)  |-----|
A|-7---|      |-4---|      |---7-|       |-6-6-|
E|-----|      |-----|      |-5---|       |-4-4-|


Solo
e|----|-----------------------------------------------------------------|
B|----|-----------------------------------------------------------------|
G|----|---6-------4-------4---------------6-------4---------------------|
D|----|-----4-6-----6-4-----4-6---7-4-------4-6-----6-4---7---7---7-----|(x2)
A|-11\|-4-------7---------------------7-4-------7-----------------------|
E|----|-----------------7-------5-----------------------5---5---5---5-7-|


Verse 2 (part 1)
e|-----------------------------------------------------------------|
B|-----------------------------------------------------------------|
G|---6-------4-------4---------------6-------4---------------------|
D|-----4-6-----6-4-----4-6---7-4-------4-6-----6-4---7---7---7-----|(x4)
A|-4-------7---------------------7-4-------7-----------------------|
E|-----------------7-------5-----------------------5---5---5---5-7-|

Verse 2 (part 2)
e|-----|      |-----|      |-----|       |---|
B|-----|      |-----|      |-----|       |---|
G|-----|      |-----|      |-----|       |---|
D|---9-|(x8)  |---6-|(x4)  |-----|(x12)  |---|
A|-7---|      |-4---|      |---7-|       |---|
E|-----|      |-----|      |-5---|       |-4-|
Добавлено: 14.11.2013
Другие материалы по этой песне:
  • Аккорды и текст

Страница создана 01.11.2013
http://primanota.ru/rock-n-roll-soldiers/water-tower-chords.htm
Привет, Гость.
Предлагаем пройти революционный курс по гитаре.
Подарок от PrimaNota.Ru, забирай!