PrimaNota.ru - самый крупный в мире бесплатный архив песенных текстов, аккордов, табулатур и нот


Rock N Roll Soldiers - Black - таба, видео

Регистрация Запомнить меня
Войти через:  Facebook Google Twitter Vk Yandex Mail.ru

Rock N Roll Soldiers - Black - таба, видео

Печатать
Просмотров: 101
Intro, and plays until chorus
e)-----7-------------------------|
b)---8---8-----------------------|
g)-9-------- 9-9-9---------------|
d)-----------9-9-9---------------|
a)-----------7-7-7---------------|
E)-------------------------------|

one guitar goes…
chorus
e)-----7--------7--------7---------------------------------------------------|
b)---8---8---8---8---8----8-------------------5-------5---------7--------7---|
g)-9-------9--------9---------9-7-----------5---5---5--5------7--7----7---7--|
d)-----------------------------------10-9--5-------5----------7-------7------|
a)---------------------------------------------------------------------------|
E)---------------------------------------------------------------------------|

while the other just hits over and over during the chorus
e)------|
b)------|
g)---9--|
d)---9--|
a)---7--|
E)------|
and I can't decide…
e)-----------------------------9-10-11---------------------------------9--|
b)--11-10(bend)---11-10---------------9------------9-----11-12------------|
g)--------------------------------------------11(bend)---11---------------|
d)------------------------------------------------------------------------|
a)------------------------------------------------------------------------|
E)------------------------------------------------------------------------|

e)-----------------------------9-10-11-----------------------------|
b)--11-10(bend)---11-10---------------9------------9---------------|
g)--------------------------------------------11(bend)---11-11-10--|
d)-----------------------------------------------------------------|
a)-----------------------------------------------------------------|
E)-----------------------------------------------------------------|

Bridge
e----------------------------------------------------------------------------------|
b----------------------------------------------------------------------------------|
g-9-9-99--5-55-555---9-99-7-77-----------9-9-99—5-55-555—121212-12-12-12-7-7-77-8--|
d-9-9-99--5-55-555---9-99-7-77-----------9-9-99—5-55-555—121212-12-12-12-7-7-77-8--|
a-7-7-77--3-33-333---7-77-5-55—5-8-7--7-7-77---3-33-333--101010-10-10-10-5-5-55-6--|
E--------------------------------------7-------------------------------------------|
Добавлено: 13.06.2012
Другие материалы по этой песне:
  • Аккорды и текст

Страница создана 16.03.2012
http://primanota.ru/rock-n-roll-soldiers/black-chords.htm
Привет, Гость.
Предлагаем пройти революционный курс по гитаре.
Подарок от PrimaNota.Ru, забирай!