PrimaNota.ru - самый крупный в мире бесплатный архив песенных текстов, аккордов, табулатур и нот


Rock Kills Kid - Back To Life - текст песни, таба, видео

Регистрация Запомнить меня
Войти через:  Facebook Google Twitter Vk Yandex Mail.ru

Rock Kills Kid - Back To Life - текст песни, таба, видео

Печатать
Просмотров: 161
My first ever tab. There are no tabs that I could find of this song so it's all by 
scratch. Hopefully this will spark more versions/corrections etc.
Intro:
e ---------------------------------------------|
b -------9----8---------------9----8-----------|
g -----8-----------8--------8------------------|
d --10-----10---10---10--10-----10---10--8--10-|
a ---------------------------------------------|
e ---------------------------------------------|

e ----------------------------------------8----|
b -------9----8---------------9----11----------|
g -----8-----------8--------8-----------8------|
d --10-----10---10---10--10-----10----------10-|
a ---------------------------------------------|
e ---------------------------------------------|

Pre-Verse Riff: X2
e 8--8--8--8---8-8-8-8--8-8-8-8--8-8-8-8--8--8--8--8---8-8-8-8--8-8-8-8--------------|
b 11-11-11-11--9-9-9-9--8-8-8-8--9-9-9-9--11-11-11-11--9-9-9-9--8-8-8-8--------------|
g 8--8--8--8---8-8-8-8--8-8-8-8--8-8-8-8--8--8--8--8---8-8-8-8--8-8-8-8--8--8--8--8--|
d -----------------------------------------------------------------------10-10-10-10-|
a -----------------------------------------------------------------------------------|
e -----------------------------------------------------------------------------------|

Verse: Bass and Drums only
"I have waited for this day
To feel I'm fitting in
And I have longed to feel this way
To be alive again"

Chorus:X2
"I came back, back, back to life
I came back, back, back to life..."
e ----------------------------------------------------------------------------------------------------|
b ----------------------------------------------------------------------------------------------------|
g ----------------------------------------------------------------------------------------------------|
d -8h10-p8--h10-10-10---8h10-p8--h10-10-10-10-10-8-8----8h10-p8--h10-10-10-10-10-8-8-8-8-8/6h8-6h8p6--|
a ----------------------------------------------------------------------------------------------------|
e ----------------------------------------------------------------------------------------------------|

Pre-Verse Riff: X2
"...I came back"
e 8--8--8--8---8-8-8-8--8-8-8-8--8-8-8-8--8--8--8--8---8-8-8-8--8-8-8-8--------------|
b 11-11-11-11--9-9-9-9--8-8-8-8--9-9-9-9--11-11-11-11--9-9-9-9--8-8-8-8--------------|
g 8--8--8--8---8-8-8-8--8-8-8-8--8-8-8-8--8--8--8--8---8-8-8-8--8-8-8-8--8--8--8--8--|
d -----------------------------------------------------------------------10-10-10-10-|
a -----------------------------------------------------------------------------------|
e -----------------------------------------------------------------------------------|

Intro:

"I made plans to go away
And never to return
I did not think I'd feel this way
But this is what I've learned"
e ---------------------------------------------|
b -------9----8---------------9----8-----------|
g -----8-----------8--------8------------------|
d --10-----10---10---10--10-----10---10--8--10-|
a ---------------------------------------------|
e ---------------------------------------------|

e ----------------------------------------8----|
b -------9----8---------------9----11----------|
g -----8-----------8--------8-----------8------|
d --10-----10---10---10--10-----10----------10-|
a ---------------------------------------------|
e ---------------------------------------------|

Chorus: X2
"I came back, back, back to life
I came back, back, back to life..."
e ----------------------------------------------------------------------------------------------------|
b ----------------------------------------------------------------------------------------------------|
g ----------------------------------------------------------------------------------------------------|
d -8h10-p8--h10-10-10---8h10-p8--h10-10-10-10-10-8-8----8h10-p8--h10-10-10-10-10-8-8-8-8-8/6h8-6h8p6--|
a ----------------------------------------------------------------------------------------------------|
e ----------------------------------------------------------------------------------------------------|

Bridge:
"...I came back
And now there's time to think
Of someone else besides myself
And now there's time to think
Of someone else"

Guitar 1 with slight Delay
e ---------------------------------------------------------------------------------------------------|
b -----------------------------------------------------------------11-11-11-11------------13-13-13-13|
g 15-15-15-15--17-17-17-17-15-15-15-15--17-17-17-17----13-13-13-13-------------13-13-13-13-----------|
d ---------------------------------------------------------------------------------------------------|
a ---------------------------------------------------------------------------------------------------|
e ---------------------------------------------------------------------------------------------------|

e -------------------------------------------------------------------------|
b -------------------------------------------------------------------------|
g 12-12-12-12--13-13-13-13--15-15-15-15--17-17-17-17--15h17--15h17-15ring--|
d -------------------------------------------------------------------------|
a -------------------------------------------------------------------------|
e -------------------------------------------------------------------------|

------------------------------------|
------------------------------------|
-17ring---13-13-13-13--15-15-15-15--|
------------------------------------|
------------------------------------|
------------------------------------|


e ---------------------------------|
b ---------------------------------|
g 12-12-12-12--13-13-13-13--17-----|ring
d ---------------------------------|
a ---------------------------------|
e ---------------------------------|

Bridge 2
Guitar 1 with slight Delay X2
e -------------------------------------------------------------|
b ---------16-16---16--------16-16----16----16-16---16---------|
g 17ring---------17---17ring-------17----17-------17---15ring--|
d -------------------------------------------------------------|
a -------------------------------------------------------------|
e -------------------------------------------------------------|


Guitar 2 and lyrics (start as guitar 1 repeats bridge 2 - play continuously and fade out at end)
"I came back...
I came back...

I came back, back
Back to, life
I came back, back
Back to, life


I came back, back
Back to, life
I came back, back
Back to, life

I came back
(I have waited for this day)
I came back, I came back
(I have longed to feel this way)
I came back

I came back
(I have waited for this day)
I came back
(I have longed to feel this way)
I came back

I have waited for this day
To feel I'm fitting in (I came back)
I have longed to feel this way
To be alive again (I came back)
e ----------------------------------------------------------------------------------------------|
b ----------------------------------------------------------------------------------------------|
g ----------------------------------------------------------------------------------------------|
d 8h10-p8--h10--8h10-p8--h10-10-10-8----8h10-p8h10-8--------------------------------------------|
a ----------------------------------------------------------------------------------------------|
e ----------------------------------------------------------------------------------------------|

Guitar 1: (begin on 5th repeat of guitar 2 - play continuously and fade out at end)
e 8--8--8--8---8-8-8-8--8-8-8-8--8-8-8-8--8--8--8--8---8-8-8-8--8-8-8-8--------------|
b 11-11-11-11--9-9-9-9--8-8-8-8--9-9-9-9--11-11-11-11--9-9-9-9--8-8-8-8--------------|
g 8--8--8--8---8-8-8-8--8-8-8-8--8-8-8-8--8--8--8--8---8-8-8-8--8-8-8-8--8--8--8--8--|
d -----------------------------------------------------------------------10-10-10-10-|
a -----------------------------------------------------------------------------------|
e -----------------------------------------------------------------------------------|
Добавлено: 08.08.2013
Вам также может быть интересно:
Другие материалы по этой песне:
  • Аккорды и текст

Страница создана 01.05.2012
http://primanota.ru/rock-kills-kid/back-to-life-chords.htm
Привет, Гость.
Предлагаем пройти революционный курс по гитаре.
Подарок от PrimaNota.Ru, забирай!