PrimaNota.ru - самый крупный в мире бесплатный архив песенных текстов, аккордов, табулатур и нот


Rock City - Save My Soul - таба, видео

Регистрация Запомнить меня
Войти через:  Facebook Google Twitter Vk Yandex Mail.ru

Rock City - Save My Soul - таба, видео

Печатать
Просмотров: 34
Artist : R. City
Song : Save My Soul
Tabbed by : Dave Tran
instagram : davetran
email : davetran01@gmail.com
Tuning Standard
No Capo
Key : Emajor


[Main Riff - Option 1 on 2 strings]
e|-----------------|-----------------|------------------|--------------------|
B|-----------------|-----------------|------------------|--------------------|
G|-----------------|-----------------|------------------|--------------------|
D|-----------------|-----------------|------------------|--------------------|
A|-----------2-----|-------2/4-2-----|------------------|--------------------|
E|-0---0-2/4-------|-0---0-----------|-0---0-2/4-5----4-|-5-4-0--------------|





[Main Riff - Option 2 on 1 strings]
e|-----------------|-----------------|------------------|--------------------|
B|-----------------|-----------------|------------------|--------------------|
G|-----------------|-----------------|------------------|--------------------|
D|-----------------|-----------------|------------------|--------------------|
A|-----------------|-----------------|------------------|--------------------|
E|-0---0-2/4-7-----|-0---0-7/9-7-----|-0---0-2/4-5----4-|-5-4-0--------------|





[Bridge - Acoustic]
e|-4---4--4-4-0--0--0---|-0---------0-----------|
B|-5---5--5-5-0--0--0---|-0---------0-----------|
G|-6---6--6-6-2--2--2---|-1---------1-----------|
D|-6---6--6-6-2--2--2---|-2---------2-----------|
A|-4---4--4-4-0--0--0---|-2---------2-----------|
E|----------------------|-0---------0-----------|
   C#m        Asus2       E

e|-4---4--4-4-0--0--0---|-0---0--0-0-0--0--0--0-|
B|-5---5--5-5-0--0--0---|-0---0--0-0-0--0--0--0-|
G|-6---6--6-6-2--2--2---|-1---1--1-1-4--4--4--4-|
D|-6---6--6-6-2--2--2---|-2---2--2-2-4--4--4--4-|
A|-4---4--4-4-0--0--0---|-2---2--2-2-2--2--2--2-|
E|----------------------|-0---0--0-0------------|
   C#m        Asus2       E          Bsus4

e|-4---4--4-4-0--0--0---|-0---------0-----------|
B|-5---5--5-5-0--0--0---|-0---------0-----------|
G|-6---6--6-6-2--2--2---|-1---------1-----------|
D|-6---6--6-6-2--2--2---|-2---------2-----------|
A|-4---4--4-4-0--0--0---|-2---------2-----------|
E|----------------------|-0---------0-----------|
   C#m        Asus2       E

e|-4---4--4-4-0--0--0---|-0---0--0-0-0--0--0--0-|-0--0--0--0--0--0--0--0-|-0--------------------|
B|-5---5--5-5-0--0--2---|-0---0--0-0-0--0--0--0-|-0--0--0--0--0--0--0--0-|-0--------------------|
G|-6---6--6-6-2--2--2---|-1---1--1-1-4--4--4--4-|-4--4--4--4--4--4--4--4-|-4--------------------|
D|-6---6--6-6-2--2--0---|-2---2--2-2-4--4--4--4-|-4--4--4--4--4--4--4--4-|-4--------------------|
A|-4---4--4-4-0--0--0---|-2---2--2-2-2--2--2--2-|-2--2--2--2--2--2--2--2-|-2--------------------|
E|----------------------|-0---0--0-0------------|------------------------|----------------------|
   C#m        Asus2       E          Bsus4




[Bridge - Electric]
e|----------------------|-----------------------|
B|----------------------|-----------------------|
G|----------------------|-----------------------|
D|----------------------|-----------------------|
A|-4---4--4-4-0--0--0---|-----------------------|
E|----------------------|-0---------------------|
   C#m        Asus2       E

e|----------------------|-----------------------|
B|----------------------|-----------------------|
G|----------------------|-----------------------|
D|----------------------|-----------------------|
A|-4---4--4-4-0--0------|--------0-1-2--2--2--2-|
E|----------------------|-0---0-----------------|
   C#m        Asus2       E          Bsus4

e|----------------------|-----------------------|
B|----------------------|-----------------------|
G|----------------------|-----------------------|
D|----------------------|-----------------------|
A|-4---4--4-4-0--0--0---|-----------------------|
E|----------------------|-0---------------------|
   C#m        Asus2       E

e|----------------------|-----------------------|------------------------|----------------------|
B|----------------------|-----------------------|------------------------|----------------------|
G|----------------------|-----------------------|------------------------|----------------------|
D|----------------------|-----------------------|------------------------|----------------------|
A|-4---4--4-4-0--0------|--------0-1-2--2--2--2-|-2--2--2--2--2--2--2--2-|-2--------------------|
E|----------------------|-0---0-----------------|------------------------|----------------------|
   C#m        Asus2       E          Bsus4


************************************

| /   slide up
| \   slide down
| h   hammer-on
| p   pull-off
| ~   vibrato
| +   harmonic
| x   Mute note
| b   Bend
| pb  Pre-bend
| br  Bend release
| pbr Pre-bend release
| brb Bend release bend

************************************
Добавлено: 21.05.2016
Другие материалы по этой песне:
  • Аккорды и текст

Страница создана 21.05.2016
http://primanota.ru/rock-city/save-my-soul-chords.htm
Привет, Гость.
Предлагаем пройти революционный курс по гитаре.
Подарок от PrimaNota.Ru, забирай!