PrimaNota.ru - самый крупный в мире бесплатный архив песенных текстов, аккордов, табулатур и нот


Rock Candy Funk Party - Octopus-e - таба, видео

Регистрация Запомнить меня
Войти через:  Facebook Google Twitter Vk Yandex Mail.ru

Rock Candy Funk Party - Octopus-e - таба, видео

Печатать
Просмотров: 123
-------------------------------------------------------------------------------
                             Octopus-E - Rock Candy Funk Party
-------------------------------------------------------------------------------
Tabbed by: Max S.

Tuning: Standard

e|-------------------|----|---------------------------------|
B|-------------------|----|---------------------------------|
G|-------------------|-x3-|---------------------------------|
D|-------3-----------|----|--------3----5h6p5p3-------------|
A|---3h5---5---------|----|---3h5----5----------5--3h4h5----|
E|-----------1--3--5-|----|---------------------------------|

e|------------------------|
B|----6~---5~---4~---3\---|
G|------------------------|
D|------------------------|
A|------------------------|
E|------------------------|

e|----------------------------------------------------------------|
B|----------------------------------------------------------------|
G|------6h7-------------------------------------------------------|
D|----------8---6--8------5--6--5--6------------------3-----------|
A|-----------------------------------------4--4---6---------------|
E|--------------------------------------------------------6-------|

e|----------------------------------------------------------------|
B|----------------------------------------------------------------|
G|------6h7-------------------------------------------------------|
D|----------8---6--8----------------------------------3-----------|
A|-----------------------------------------4--4---6---------------|
E|--------------------------------------------------------6-------|

e|----------------------------------------------------------------|
B|----------------------------------------------------------------|
G|------6h7-------------------------------------------------------|
D|----------8---6--8------5--6--5--6------------------3-----------|
A|-----------------------------------------4--4---6---------------|
E|--------------------------------------------------------6-------|

e|-----------------------------------------------|
B|-----------------------------------------------|
G|------6h7-------------9--9----8h9--------------|
D|----------8---6--8----8--8--------10---8--10---|
A|-----------------------------------------------|
E|----------------------8--8---------------------|


************************************

| /   slide up
| \   slide down
| h   hammer-on
| p   pull-off
| ~   vibrato
| +   harmonic
| x   Mute note
| b   Bend
| pb  Pre-bend
| br  Bend release
| pbr Pre-bend release
| brb Bend release bend

************************************
Добавлено: 24.12.2015
Другие материалы по этой песне:
  • Аккорды и текст

Страница создана 24.12.2015
http://primanota.ru/rock-candy-funk-party/octopus-e-chords.htm
Привет, Гость.
Предлагаем пройти революционный курс по гитаре.
Подарок от PrimaNota.Ru, забирай!