PrimaNota.ru - самый крупный в мире бесплатный архив песенных текстов, аккордов, табулатур и нот


Robots Don't Cry - Пристегнись - аккорды и текст, видео

Регистрация Запомнить меня
Войти через:  Facebook Google Twitter Vk Yandex Mail.ru

Robots Don't Cry - Пристегнись - аккорды и текст, видео

Печатать
Просмотров: 184
Пристегнись
Robots Don't Cry
e------12-11---------12-11--14----12--11-----------18-----------------------18------------
b-------------12--------------------------------12-----------17---16-----------------17-16---
g-------------------------------------------------------------------------------------------
d--------------------------------------------------------------------------------------------
a--------------------------------------------------------------------------------------------
e---------------------------------------------------------------------------------------------

e---------------------------------------------
b----------------------11---------------------
g----9-8-8-8-8-8-8-8------8-8--11-8-8-8--------
d-----------------------------------------------
a------------------------------------------------
e---------------------------------------

e----------------------------------------------------------------
b-----------------------------------------------------------------
g---9-8--------9--8---11-----9-8-------9--8--11-----9--8------------
d--------9---------------------------9--------------------------9----------
a---------------------------------------------------------------------
e---------------------------------------------------------------------

e----------------------------------------------------------------------
b--------------------------------------------------------------------
g--9-8--------8-8-8-8-8-8-8-8-9-9-9-9-9-9-11-11-11-13-13-15-15------
d--------9------------------------------------------------------------------
a------------------------------------------------------------------------
e-------------------------------------------------------------------------

e----------------------------------------------------------------------
b--12-12-xxxxx-11-11-xxxxxx--14-14---------17-xxxxx-16-xxx-19-19xx-------
g----------------------------------------------------------------------
d-----------------------------------------------------------------------
a----------------------------------------------------------------------
e-----------------------------------------------------------------------

e-----19---------------------------21-------------------------------------------
b--------xxxx-17-xxx-16--xxx-----xxxx-17-xx-16------19-xxxx-17-xxx-16--xx--------
g----------------------------------------------------------------------
d-----------------------------------------------------------------------
a----------------------------------------------------------------------
e-----------------------------------------------------------------------

e----------------------------------------------------------------------
b---19-19-19-19-17-17-17-17-16-16-16-19-19-17-17-17-16-16-16--17*-
g----------------------------------------------------------------------
d-----------------------------------------------------------------------
a----------------------------------------------------------------------
e--------------------------------------------------------------------

вступление - B (2 раза)
куплет - B (4 раза)
первый припев - F# 
B (2 раза)
куплет - B (4 раза)
второй припев - F# (2 раза)
и потом на переходе и на соло тож самое что и в припеве

Я увидел солнце в небе твоих глаз
Лёгкие сжало так сильно, нелепость твоих фраз
Ты так любишь игры, ну что, давай играть
Хочешь я стану загадкой, чтобы ты смогла разгадать

Ты Пристегнись
Твоё сердце открыто
Грусть растворись

Я увидел тучи в небе твоих глаз
Лёгкие сжало так сильно напряжение наших фраз
Всё конец игре, шах и мат
Да я стал загадкой, но ты не смогла разгадать

Ты пристегнись
Твоё сердце разбито
Чувства требуют бис
Добавлено: 18.04.2014
Другие материалы по этой песне:
  • Аккорды и текст

Страница создана 18.04.2014
http://primanota.ru/robots-dont-cry/pristegnis-chords.htm
Привет, Гость.
Предлагаем пройти революционный курс по гитаре.
Подарок от PrimaNota.Ru, забирай!