PrimaNota.ru - самый крупный в мире бесплатный архив песенных текстов, аккордов, табулатур и нот


Robin Trower - Twice Removed From Yesterday - текст песни, таба, видео

Регистрация Запомнить меня
Войти через:  Facebook Google Twitter Vk Yandex Mail.ru

Robin Trower - Twice Removed From Yesterday - текст песни, таба, видео

Печатать
Просмотров: 213
Twice Removed From Yesterday

     ~~~~~~~~   ~~~~~~~~   ~~~~~~~~~    ~~~~~~~~    ~~~~~
||---0--------|-0--------|--0--------|--0--------|--0----|
||o--0--------|-0--------|--0--------|--0--------|--0----|
||---9--------|-7--------|-12--------|-11--------|-11----|
||------------|----------|-----------|-----------|-------|
||o-11--------|-9--------|-14--------|-13--------|-13----|
||------------|----------|-----------|-----------|-------|

  ~                 ~~~~~~~~    ~~~~
                                          
|-0---------0--0-|--0--------|--0---------||-|
|-0---------0--0-|--0--------|--0--------o||-|
|-7---------7--8-|--9--------|--9---------||-|
|----------------|-----------|------------||-|
|-9---------9-10-|-11--------|-11--------o||-|
|----------------|-----------|--0---------||-|


||---------------------------|------------------------------|
||o--------------------------|------------------------------|
||--10--11-------------13-11-|------------7------7-9---7----|
||--10--11-------11-13-------|-13-11------7----7-----9-7----|
||o--8---9--9s11-------------|-------9-11-5S=7-----------7--|
||---------------------------|------------------------------|


                                          1.
|--------------------|--------------------------||
|--------------------|-------------------------o||
|-----9--------------|-----9--------------9-----||
|-----9--------------|-----9--------------9-----||
|-----7-------7-7s9--|-----7-------7-7s9--7----o||
|-0--(0)--7h9--------|-0--(0)--7h9--------------||


|----------------------------------------------------------------------------|
|----------------------------------------------------------------------------|
|-------------------------------------------------------------------------1--|
|--9---9-11S14--12-12---12--16--12--9-11-6----6-5----5--7--9--4--4s=5s=4--2--|
|-11--11-11S14--14-14-----------------------------------------------------2--|
|--0---0--0--0---0--0---10--14--10--7--9-4----4-3----3--5--7--2--2s=3s=2--0--|
Добавлено: 25.07.2013
Другие материалы по этой песне:
  • Аккорды и текст

Страница создана 19.05.2012
http://primanota.ru/robin-trower/twice-removed-from-yesterday-chords.htm
Привет, Гость.
Предлагаем пройти революционный курс по гитаре.
Подарок от PrimaNota.Ru, забирай!