PrimaNota.ru - самый крупный в мире бесплатный архив песенных текстов, аккордов, табулатур и нот


Robin Trower - Only Time - таба, видео

Регистрация Запомнить меня
Войти через:  Facebook Google Twitter Vk Yandex Mail.ru

Robin Trower - Only Time - таба, видео

Печатать
Просмотров: 86
Robin Trower
Only Time
 
Submitted by:  Leon   
lark_noel@hotmail.com
 

Yeah, erm, listen to the music to get the tone, and timing.  Robin would
use
various vintage strats, and Marshall Amps, prob 50watt heads, and vintage
celestion speakers.  Probably using the Univibe, and drive pedals, and
probably a Vox wah, or crybaby, something vintage and toneful.  Prob neck
pickup, and middle. 3 position switch with trowers strats.
 
 
-intro-
-solo-
-fade-
 
 
 

h        = hammer on
p        = pull off
tr       = trill (alternate between two notes fast (hammer on/pull off
fast)
/        = slide up
\        = slide down
~        = vibrato
(X)      = Ghost note (applied quieter when on own, or in chord)
x        = mute string
-X-(Y)-  = bend X note to Y note
 

Normal tuning: EADGBe
 
 
 
Intro
 
(F#)          tr~        (F#)  (F#)    (E)                         (F#)
-2-|-----2----------------2--|-(2)-4-2--0-2-0-|---------------------(2)
-2-|----------------------2--|-(2)------0-----|---------------------(2)
-3-|---4---4--2h4p2---2---3--|--3-------1-----|----------------------3-
-4-|-4--------------4-----4--|--4-------2-----|-----2---2h4-2--------4-
-4-|----------------------4--|--4-------2-----|-2/4---4-------0h2p0--4-
-2-|----------------------2--|--2-------0-----|----------------------4-
 

(F#)   (F#)                             (F#)  (F#)
-2---|-(2)-4-2--0-2-0-|------------------2--|---2-------------------
-2---|-(2)------0-----|------------------2--|---2-----------------
-3---|--3-------1-----|---------2/4-4\2--3--|---3-------------------
(4)--|--4-------2-----|-----2---2/4-4\2--4--|--(4)-------------------
(4)--|--4-------2-----|-2/4---4----------4--|--(4)-------------------
(2)--|--2-------0-----|------------------2--|--(2)-----------------
 

     (F#)      (E)            =========== A =========(F#)
-----(2)-4-2-----------0-2-0-|-----------------------(2)-------
-----(2)---------------0-----|-----------------------(2)-------
------3----------------1-----|------------------------3--------
------4----------------2-----|-----2---2h4-2----------4---------
------4----------------2-----|-2/4---4-------0h2p0----4---------
------2----------------0-----|------------------------4---------
Lonely..       .stream                as it..  ..the sea (with riff A)
Lonely..       .dreams                driftin'..eternity (with riff B)
 
 
 
 ========= B =======(F#)
|--------------------2--|
|--------------------2--|
|---------2/4-4\2----3--|
|-----2---2/4-4\2----4--|
|-2/4---4------------4--|
|--------------------2--|
 
 
 
Im one of the few ppl to actually submit trower tab, thnx to anyone else
who
submitted anything.  E-mail me if your interested in any other stuff im
working on, and please do add to this.  Im too lazy at the moment to
finish
the file, the basic thing is still F# / E chords, with wah later.  Love
this great soulful trower stuff, its great.
 
Leon
     
Добавлено: 17.10.2013
Другие материалы по этой песне:
  • Аккорды и текст

Страница создана 17.10.2013
http://primanota.ru/robin-trower/only-time-chords.htm
Привет, Гость.
Предлагаем пройти революционный курс по гитаре.
Подарок от PrimaNota.Ru, забирай!