PrimaNota.ru - самый крупный в мире бесплатный архив песенных текстов, аккордов, табулатур и нот


Robin Trower - Lady Love - текст песни, бас-таба, видео

Регистрация Запомнить меня
Войти через:  Facebook Google Twitter Vk Yandex Mail.ru

Robin Trower - Lady Love - текст песни, бас-таба, видео

Печатать
Просмотров: 153
LADY LOVE; ROBIN TROWER.


bass tab...


INTRO; guitar and drums only on first half.


Intro
|-------6---------------|-------6---------------|
|------6----------------|------6---4s6-4-2------|
|-2s4-------------------|-2s4--------------4-2--|
|-----------------------|---------------------2-|
 

   

Verse
|-------------------|-------------------|
|-----4-6-----------|-----4-6-----------|
|--4-------4—-2-0-2-|--4-------4-—2---2-|
|---------4—-4-2----|---------4—-4-0-2--|
  

Chorus 
|-----------------------|---------------|
|----4-6---6-7--7s11-9—-|-4S6-4-2-------|
|---------7-------------|---------4-2---|
|--4-----7--------------|-------------2-|


|-----------------------|
|----4-6----------------|
|---------7--------2S4--|
|--4-----7---4-5--------|


translated by; Mickey Thump (Blue Mushroom band)
Добавлено: 01.07.2012
Другие материалы по этой песне:

Страница создана 26.04.2012
http://primanota.ru/robin-trower/lady-love-chords.htm
Привет, Гость.
Предлагаем пройти революционный курс по гитаре.
Подарок от PrimaNota.Ru, забирай!