PrimaNota.ru - самый крупный в мире бесплатный архив песенных текстов, аккордов, табулатур и нот


Robin Trower - Inside out - таба, видео

Регистрация Запомнить меня
Войти через:  Facebook Google Twitter Vk Yandex Mail.ru

Robin Trower - Inside out - таба, видео

Печатать
Просмотров: 101
Уроки эстрадного вокала в Санкт-Петербурге


E|--------------------------------------------------------------------------------------------------------|
B|--------------------------------------------------------------------------------------------------------|
G|-----------------------1-------------------------------------------------------------------------------|
D|----------------1---------3----------------------------------------------------------------------------|
A|---------1--3------3----------------------------------------------------------------------------------|
E|--1--1-------------------------------------------------------------------------------------------------|


E|------------------------------------------------------------------------------------------------------|
B|------------------------------------------------------------------------------------------------------|
G|------------------------------------------------------------------------------------------------------|
D|----------------1------1--3--------------------------------------------------------------------------|
A|---------1--3------3--------------------------------------------------------------------------------|
E|--1--1-----------------------------------------------------------------------------------------------|


E|------------------------------------------------------------------------------------------------------|
B|------------------------------------------------------------------------------------------------------|
G|----------------1-----1--3---------------------------------------------------------------------------|
D|---------1--3-----3----------------------------------------------------------------------------------|
A|--1--1-----------------------------------------------------------------------------------------------|
E|------------------------------------------------------------------------------------------------------|


Добавлено: 21.08.2013
Другие материалы по этой песне:
  • Аккорды и текст

Страница создана 21.08.2013
http://primanota.ru/robin-trower/inside-out-chords.htm
Привет, Гость.
Предлагаем пройти революционный курс по гитаре.
Подарок от PrimaNota.Ru, забирай!