PrimaNota.ru - самый крупный в мире бесплатный архив песенных текстов, аккордов, табулатур и нот


Robin Trower - Gonna Be More Suspicious - таба, видео

Регистрация Запомнить меня
Войти через:  Facebook Google Twitter Vk Yandex Mail.ru

Robin Trower - Gonna Be More Suspicious - таба, видео

Печатать
Просмотров: 90
Уроки эстрадного вокала в Санкт-Петербурге
-------------------------------------------------------------------------------
                   Gonna Be More Suspicious - Robin Trower
-------------------------------------------------------------------------------
Tuning: Half Step down from standard

eb|---------------------------------------------------------------------------|
Bb|-----8-8-8-----------------------------------------------------------------|
Gb|-----7-7-7-----------------------------------------------------------------|
Db|-----6-6-6-------5--/9--5--------------------------------------------------|
Ab|-----7-7-7-----------------------------------------------------------------|
Eb|0------------5-7-----------------------------------------------------------|

Добавлено: 17.12.2015
Другие материалы по этой песне:
  • Аккорды и текст

Страница создана 17.12.2015
http://primanota.ru/robin-trower/gonna-be-more-suspicious-chords.htm
Привет, Гость.
Предлагаем пройти революционный курс по гитаре.
Подарок от PrimaNota.Ru, забирай!