PrimaNota.ru - самый крупный в мире бесплатный архив песенных текстов, аккордов, табулатур и нот


Robin Thicke - Magic - текст песни, таба, видео

Регистрация Запомнить меня
Войти через:  Facebook Google Twitter Vk Yandex Mail.ru

Robin Thicke - Magic - текст песни, таба, видео

Печатать
Просмотров: 198
Уроки эстрадного вокала в Санкт-Петербурге
Robin Thicke - Magic
Tabbed by: E-One


    Em7   Em7   Dm7      
E[---7----7-----5--------|--5-3-5-3-0-3------------------]
B[---8----8-----6--------|--------------5-3-5------------]
G[---7----7-----5--------|--------------------7-5-7-5----]
D[---9----9-----7--------|---------------------------7---]
A[---7----7-----5--------|-------------------------------]
E[-----------------------|-------------------------------]


    Em7   Em7   Am7      
E[---7----7--------------|---------------------------5---]
B[---8----8-----5--------|--------------------5--5-8-----]
G[---7----7-----5--------|------5----5-7--5-7------------]
D[---9----9-----5--------|--5-7----7---------------------]
A[---7----7--------------|-------------------------------]
E[--------------5--------|-------------------------------]


    Em7   Em7   Dm7          Em7  Em7   Am7
E[---7----7-----5--------|---7----7--------------]
B[---8----8-----6--------|---8----8-----5--------]
G[---7----7-----5--------|---7----7-----5--------]
D[---9----9-----7--------|---9----9-----5--------]
A[---7----7-----5--------|---7----7--------------]
E[-----------------------|--------------5--------]



Hey
Wooo
Alright Baby
Ohhh
Oh
Yeah

Em7-Em7-Dm7---|Em7-Em7-Am7---|


I can make the pain disappear
And I can erase the past ohh
I can make the future shine so bright
And I can make right now alright yeah

I got it you got it we got the magic girl
I got it you got it we got the magic girl
I got it you got it we got the magic girl
I got it you got it we got the magic girl

All I got is concrete all around me wooo…
But I can see the countryside
You can be rich when you're poor
Poor when you're rich
It can be raining
And I can make the sun shine


I got it you got it we got
(Wooo)
The magic girl
I got it
(You know you got it baby)
You got it we got the magic girl
I got it
(I've got it baby)
You got it
We got the magic girl
I got it
(You know I got it baby)
You got it we got the magic girl


I know sometimes sometimes you feel no hope
But I've been down off that lonely road
I took whatever gift he offered me
Because I knew that he would set me free


(Whoa) I got it you got it (wooo)
We got the magic girl
I got it (magic baby)
You got it
We got the magic (woo) girl
I got it
(We got the magic baby)
You got it we got the magic girl
I got it you got
It we got the magic girl wooo


    Em7   Em7   Cmaj7      Cmaj7  Dm7   Am7
E[---7----7-----3--------|---3----5--------------]
B[---8----8-----5--------|---5----6-----5--------]
G[---7----7-----4--------|---4----5-----5--------]
D[---9----9-----5--------|---5----7-----5--------]
A[---7----7-----3--------|---3----5--------------]
E[-----------------------|--------------5--------]


    Am7   Dm7   Am7         Cmaj7 Dm7   Am7      Am7
E[--------5--------------|---3----5--------------12---]
B[---5----6-----1--------|---5----6-----5--------13---]
G[---5----5-----0--------|---4----5-----5--------12---]
D[---5----7-----2--------|---5----7-----5--------14---]
A[--------5-----0--------|---3----5--------------12---]
E[---5-------------------|--------------5-------------]

    Em7   Em7   Dm7          Em7  Em7   Am7
E[---7----7-----5--------|---7----7--------------]
B[---8----8-----6--------|---8----8-----5--------]
G[---7----7-----5--------|---7----7-----5--------]
D[---9----9-----7--------|---9----9-----5--------]
A[---7----7-----5--------|---7----7--------------]
E[-----------------------|--------------5--------]


Science they can't prove it
But I know I can do it
I can fly
I can bend metal with my mind
I can wake up in a paradise ohhhh

We got that magic
We got that magic
We got that magic
We got that magic
Hey
We got that magic
We got that magic
Ewww
Got that magic come on
Hey
I got it you got it we got that magic girl
I got it you got it we got that magic girl
I got it you got it we got that magic girl
I got it you got it we got that magic girl
Everyday



The song is about 95% right I think. Enjoy playing.
Grtz, E-One
Добавлено: 15.06.2012
Другие материалы по этой песне:
  • Аккорды и текст

Страница создана 15.06.2012
http://primanota.ru/robin-thicke/magic-chords.htm
Привет, Гость.
Предлагаем пройти революционный курс по гитаре.
Подарок от PrimaNota.Ru, забирай!