PrimaNota.ru - самый крупный в мире бесплатный архив песенных текстов, аккордов, табулатур и нот


Robin N Looza - Bhool Ma Bhulyo - таба, видео

Регистрация Запомнить меня
Войти через:  Facebook Google Twitter Vk Yandex Mail.ru

Robin N Looza - Bhool Ma Bhulyo - таба, видео

Печатать
Просмотров: 90
                    !!!  PLEASE RATE  !!! 

 Title : Bhool ma bhulyo               Key: X - Dead note
  Artist: Robin 'N' Looza                    h - Hammer on
  Tuning: E A D G B e ( Standard )           p - Pull off
                                             ~ - Vibrato
                                             / - Slide


Intro: with a clean guitar...

e||--x--8--x--8--x--8--x--8--|--x--8--x--8--x--10--x--9--|
B||--x--8--x--8--x--8--x--8--|--x--8--x--8--x--10--x--9--|
G||--x--9--x--9--x--9--x--9--|--x--9--x--9--x--10--x--9--|
D||--------------------------|---------------------------|
A||--------------------------|---------------------------|
E||--------------------------|---------------------------|
   (Repeat this all over the verses and remember that there is no clean guitar in solo.)


(there is clean guitar played bit different and that is)

  laajle maile....              maaf mage......
--x--7--x--7--x--7--x--7--|--x--7--x--7--x--7--x--7--|
--x--8--x--8--x--8--x--8--|--x--8--x--8--x--8--x--8--|
--x--7--x--7--x--7--x--7--|--x--7--x--7--x--7--x--7--|
--------------------------|--------------------------|
--------------------------|--------------------------|
--------------------------|--------------------------|


   k garna.....                 saakthe.......
--x--5--x--5--x--5--x--5--|--x--5--x--5--x--5--x--5--|
--x--6--x--6--x--6--x--6--|--x--6--x--6--x--6--x--6--|
--x--5--x--5--x--5--x--5--|--x--5--x--5--x--5--x--5--|
--------------------------|--------------------------|
--------------------------|--------------------------|
--------------------------|--------------------------|


  sodhyo malai.......           unle ulta.....                      nepali cha ki cha na...
--x--8--x--8--x--8--x--8--|--x--7--x--7--x--7--x--7--|--5----------------|
--x--8--x--8--x--8--x--8--|--x--8--x--8--x--8--x--8--|--6----------------|
--x--9--x--9--x--9--x--9--|--x--7--x--7--x--7--x--7--|--5----------------|
--------------------------|--------------------------|-------------------|
--------------------------|--------------------------|-------------------|
--------------------------|--------------------------|-------------------|


(i hope you know the lines similar with these chords)


(distorted guitar: This part is same all over....... both the clean guitar and distorted 
are played
together with the verses )

 verse 1:

  vhate maile shiva ji..............
|--------------------------|--------------------------|
|--------------------------|--------------------------|
|--5--5--x--x--5--x--x--5--|--x--5--x--x--------------|
|--5--5--x--x--5--x--x--5--|--x--5--x-----2h-3p-2-----|
|--3--3--x--x--3--x--x--3--|--x--3--3--5-----------3--|
|--------------------------|--------------------------|

laajle maile maaf mage...

|-------------------|
|-------------------|
|-------------------|
|--5----------------|
|--3----------------|
|--3----------------|


k garna sakthe........

|-------------------|
|-------------------|
|-------------------|
|--3----------------|
|--3----------------|
|--1----------------|

sothyo malai une ulta     Nepali cha ki chai na......

|-------------------|
|-------------------|
|--5----------------|
|--5---------5------|
|--3---------5------|
|------------3------|

(repeat the chords of verse again....)

Verse 2:

dule hami derali.....


aagi pachi kureni .....

|-------------------|
|-------------------|
|-------------------|
|--5----------------|
|--3----------------|
|--3----------------|

khojadi aako dharma.....
|-------------------|
|-------------------|
|-------------------|
|--3----------------|
|--3----------------|
|--1----------------|


lagyo hamro baba gi lai....


|-------------------|
|-------------------|
|--5----------------|
|--5---------5------|
|--3---------5------|
|------------3------|


united states ma......


|-------------------|
|-------------------|
|-------------------|
|--3----------------|
|--3----------------|
|--1----------------|

                      shivale patuna sakena....
|-------------------|
|-------------------|
|------------5------|
|--7---------5------|
|--7---------3------|
|--5----------------|

                      shodyo ke bhayo mero tayag....
|-------------------|
|-------------------|
|------------5------|
|--7---------5------|
|--7---------3------|
|--5----------------|

                      yo dutako jeevan hera....
|-------------------|
|-------------------|
|------------5------|
|--7---------5------|
|--7---------3------|
|--5----------------|


Bhool ma bhulyo

|-------------|
|-------------|
|-------------|
|-33-33-33-33-|
|-33-33-33-33-|
|-11-11-11-11-|


hamro man.......

|-----------|
|-----------|
|-----------|
|-33-33-33--|
|-33-33-33--|
|-11-11-11--|

SOLO 1:

(backing rythm of distorted guitar, when solo is played....)
------------------------|-------------------------|
-------------7-------5--|--5----------------------|
--5----------7-------5--|--5----------------------|
--5----x--5--5----x--3--|--3----x--3--2--2h-3p-2--|
--3----x--3-------x-----|-------x-----------------|

(repeat this 8 times..... with solo. Heres the SOLO 1)

|--------------------------|
|----------15----15----13--|
|--12----------------------|
|--------------------------|
|--------------------------|
|--------------------------|

|------------------------------|--------------------------|
|--13------12--13p-12h-13p-12--|----------15----15----12--|
|------------------------------|--12----------------------|
|------------------------------|--------------------------|
|------------------------------|--------------------------|
|------------------------------|--------------------------|

|-------------------------------|----15--15--------------------|
|--13-------12--13p-12h-13p-12--|------------15--15--13----12--|
|-------------------------------|------------------------------|
|-------------------------------|------------------------------|
|-------------------------------|------------------------------|
|-------------------------------|------------------------------|

-----------------------------|----15--15--------------------|
--12h-13p-12-----------------|------------15--15--13----12--|
----------------14-----12----|------------------------------|
-----------------------------|------------------------------|
-----------------------------|------------------------------|
-----------------------------|------------------------------|

--------------------------------|--------------------------|
--13p-12h-13p-12--12------------|------15----13--12----15~-|
----------------------14----12--|--------------------------|
--------------------------------|--------------------------|
--------------------------------|--------------------------|
--------------------------------|--------------------------|

--------------------------|------------------------------|
----15~-----13--12----12--|--12--------------------------|
--------------------------|--------14----14p-12------12--|
--------------------------|----------------------14------|
--------------------------|------------------------------|
--------------------------|------------------------------|

----------------------|------15~-------------15--|----15--15------------------|
----------------------|------------15--13--------|------------15----13----12--|
----14----12----------|--------------------------|----------------------------|
----------------------|--------------------------|----------------------------|
----------------------|--------------------------|----------------------------|
----------------------|--------------------------|----------------------------|


------------------------------|------------------------|
----12h-13p-12----------------|------------------------|
----------------14--12--------|--14--14----12----------|
--------------------------14--|------------------------|
------------------------------|------------------------|
------------------------------|------------------------|


( As the solo 1 ends play these chords)
pre verse :


|-------------|
|-------------|
|-------------|
|-33-33-33-33-|
|-33-33-33-33-|
|-11-11-11-11-|

|-------------|
|-------------|
|-------------|
|-33-33-33----|
|-33-33-33----|
|-11-11-11----|


( And again the same chords with last verse )

Verse 3:

  vhate maile siddartha...................
|--------------------------|--------------------------|
|--------------------------|--------------------------|
|--5--5--x--x--5--x--x--5--|--x--5--x--x--------------|
|--5--5--x--x--5--x--x--5--|--x--5--x-----2h-3p-2-----|
|--3--3--x--x--3--x--x--3--|--x--3--3--5-----------3--|
|--------------------------|--------------------------|


 maile vhane hami bhulyo......

|-------------------|
|-------------------|
|-------------------|
|--5----------------|
|--3----------------|
|--3----------------|


jhukyo hamro dharma........

|-------------------|
|-------------------|
|-------------------|
|--3----------------|
|--3----------------|
|--1----------------|

aajkal hami pooja garcha   aafno lagi matar......

|-------------------|
|-------------------|
|--5----------------|
|--5---------5------|
|--3---------5------|
|------------3------|


                     Buddhale pattyauna sakena....
|-------------------|
|-------------------|
|------------5------|
|--7---------5------|
|--7---------3------|
|--5----------------|

                     shodyo k vhayo mero gyan....
|-------------------|
|-------------------|
|------------5------|
|--7---------5------|
|--7---------3------|
|--5----------------|

                     yo dutako jeevan hera.....
|-------------------|
|-------------------|
|------------5------|
|--7---------5------|
|--7---------3------|
|--5----------------|


Bhool ma bhulyo

|-------------|
|-------------|
|-------------|
|-33-33-33-33-|
|-33-33-33-33-|
|-11-11-11-11-|


hamro man.......

|-----------|
|-----------|
|-----------|
|-33-33-33--|
|-33-33-33--|
|-11-11-11--|

(The last solo is like this)

(Play the last solo with the same chords which are played in all verse)


solo 2 ( it's bit slidy )


|-------------------------|--------------------|
|----------------------6/-|----5/--------------|
|------2/5----2/5/--------|---------------3----|
|-------------------------|--------------------|
|-------------------------|--------------------|
|-------------------------|--------------------|

---------------------------|--------------------|-----------------------|
------------------------8--|----8~---------8/---|-------6--5~-----------|
--2/5---2/5---2/5/---------|--------------------|--5------------5~---5~-|
---------------------------|--------------------|-----------------------|
---------------------------|--------------------|-----------------------|
---------------------------|--------------------|-----------------------|

---------------------|----------------------|------------------------|
---------------------|----------------------|-------------------6/---|
----5~---5~-----5/---|----------------------|------------------------|
---------------------|----------------------|-----5----------3~------|
---------------------|--3------3----3----3--|--3~----3--3~-----------|
---------------------|----------------------|------------------------|

----------------------------|------------------------|
--13~---13~---13~---13~-13/-|------------5--6~-5-----|
----------------------------|----5----5-----------5/-|
----------------------------|------------------------|
----------------------------|------------------------|
----------------------------|------------------------|

--------------------------|---------------------|------------------------|
----13~---13~---13~---13--|--13/-----8~---------|---------5--6--5~-------|
--------------------------|---------------------|------5-----------5--4--|
--------------------------|---------------------|------------------------|
--------------------------|---------------------|------------------------|
--------------------------|---------------------|------------------------|

-------------------------|-----------------------|-------------------------|
--6--5~------------6--5--|------------6--5-------|-------6--6--6/-5--5/-1/-|
----------4--5--5--------|------5--5----------5--|--5----------------------|
-------------------------|-----------------------|-------------------------|
-------------------------|-----------------------|-------------------------|
-------------------------|-----------------------|-------------------------|

------------------1/---|----------12--------|
-----------------------|--------------------|
--2----2--5----5-------|--------------------|
-----------------------|--------------------|
-----------------------|--------------------|
-----------------------|--------------------|


(Hope you all enjoy this..)


Here is the lyrics (not 100% accurate lyrics)

Vhete mai le shiva ji
pasupa ti ja da ban yo
vasan di na aa ka ho ina
kebha yo des ma
lajle mai le maf ma ge
k gar na sak the
sod yo mal ai un le ulta
Nepa li cha ki chai na

dul
e ha mi deu ra li
sita ko pai la ma
bhe te shiva ko che la ha ru
pipal bot ko fed ma
aaghi pa chhi kuireni
khos dai aa ko dharma
lagyo ham ro ba ba ji lai
united sta tes ma
sivale pat ya u na sa ke na
sodyo ke bha yo me ro tayag
yo duta ko jeevan hera
bhool ma bul yo hamro mann

bhe te mai le sida r tha
lum bi ni ja da ban yo
va san di nu aa ka hoi na
k bha yo des ma
mai le bha ne ha mi bhool you
juk yo ha ro dhar ma
aaj kaal ha mi pu ja gar cha
aaf no la gi maaa tra
bud dha le pat yau na sa ke na
sod yo ke bha yo me ro pyar
ja til ta ko ji van he ra
bhul ma bul yo ham ro mann


   horse.manic@yahoo.com
Добавлено: 22.07.2012
Другие материалы по этой песне:

Страница создана 19.03.2012
http://primanota.ru/robin-n-looza/bhool-ma-bhulyo-chords.htm
Привет, Гость.
Предлагаем пройти революционный курс по гитаре.
Подарок от PrimaNota.Ru, забирай!