PrimaNota.ru - самый крупный в мире бесплатный архив песенных текстов, аккордов, табулатур и нот


Robin Loxley and Jay Hawke - Hard Night - таба, видео

Регистрация Запомнить меня
Войти через:  Facebook Google Twitter Vk Yandex Mail.ru

Robin Loxley and Jay Hawke - Hard Night - таба, видео

Печатать
Просмотров: 161
It's a really simple song to play. Just would like to share the idea of the song, 
cause I didn't find any tab or chords. Listen to the song, and I'm sure you'll do everything right.
While playing it you can use the different chord positions that makes the song sound richer.
Also you can use the standard tuning, while personally I prefer a full step down tuning.

Enjoy!
 
Intro and verse:

-----------7--------7---------3---------7------------7----------------------7---------------------------------
-----------7--------8---------3---------7------------7----------------------7---------------------------------
-----------7--------9---------4---------7------------7----------------------7---------------------------------
-----------9-----9--9---------5/--------9------------9\--\2/--/7------------9---------------------------------
---------9-9--7-7---7-------5-5/------9-9---------9--9\--\2/--/7---------9--9---------------------------------
-(7)-(7)----------------3-3------/7-7--------7-7----------0----5----7--7----7---------------------------------

Pre-chorus
---
---
---
-2-
-2- (let ring) or you can use full Em chord
-0-

Chorus

-------------------------------------
-------------------------------------
-------------------------------------
-9---7---5---2------5---7---9--------
-9---7---5---2------5---7---9--------
-7---5---3---0------3---5---7--------


Intro

Verse

Bm              Em
If she's gone away
G                     Bm   
Like a warm summer's day
   Em         A       Bm     
I just don't wanna know
The women they will run
And the dark days wil come
Like mama did tell me so

Pre-chorus
Em 
But it's not the right day
To change my way

Chorus
            B5     A5 
It's been a hard life
        G5         E5  
Can be hard on myself
           G5       A5 
Just need a good night
                B5
To forget about you with someone else
           B5      A5
It's such a hard time
            G5             E5
But I don't need no ones help
            G5   A5        B5 
It's such a hard night in hell

Verse
Yet the day will dawn
And the time's gonna come
We all need a little hope
And the memory it'll drive
And leave a thorn in your side
And let you know it's time to go

Prechorus
But it's far too late
To clear my name

Chorus
            B5     A5 
It's been a hard life
        G5         E5  
Can be hard on myself
           G5       A5 
Just need a good night
                B5
To forget about you with someone else
           B5      A5
It's such a hard time
            G5             E5
But I don't need no ones help
            G5   A5        B5 
It's such a hard night in hell

Solo (play the chorus progression)

Repeat chorus (only drums firstly, then guitars enter)

G5   A5      B5
Hard night in hell

            G5   A5       B5 
It's such a hard night in hell


Добавлено: 05.06.2016
Другие материалы по этой песне:
  • Аккорды и текст

Страница создана 05.06.2016
http://primanota.ru/robin-loxley-and-jay-hawke/hard-night-chords.htm
Привет, Гость.
Предлагаем пройти революционный курс по гитаре.
Подарок от PrimaNota.Ru, забирай!