PrimaNota.ru - самый крупный в мире бесплатный архив песенных текстов, аккордов, табулатур и нот


Robin Beck - The One - таба, видео

Регистрация Запомнить меня
Войти через:  Facebook Google Twitter Vk Yandex Mail.ru

Robin Beck - The One - таба, видео

Печатать
Просмотров: 82
-------------------------------------------------------------------------------
                             THE ONE - Robin Beck
-------------------------------------------------------------------------------
Tabbed by: Beanboy      
Tuning: Standard

Song - The One
Artist - Robin Beck
Album - The Great Escape
Video - http://www.youtube.com/watch?v=AVpipEItgxs
Website - http://www.robinbeckrocks.com/home.html


Vocal Intro
ends on C chord

Intro solo

e|-------------------------------------------------------------------------------|
B|-------------------------------------------------------------------------------|
G|--sl12-11------12-11-------12-11---------12-11-------12-11-14-12--12-11--------|
D|----------12-9-------12-14-------12-9----------12-10--------------------12-14--|
A|-------------------------------------------------------------------------------|
E|-------------------------------------------------------------------------------|

Verse

e|------------------------------------------------------------------------|
B|-----8-8-7-8-8-7-----------8-7-8-7h8------------------------------------|
G|-7---7-7-7-7-7-7-----------7-7-7-7--------------------------------------|
D|-7---7-7-7-7-7-7----9-4-2--------------(x2)-----------------------------|
A|-5--------------7h9-9-4-2-----------------------------------------------|
E|--------------------7-2-0-----------------------------------------------|

Pre Chorus

e|--------6-6-5--------8-5------------------------------------------------|
B|-4-4p3--6-6-6--4-4p3-6-3------------------------------------------------|
G|-3-3----5-5-5--3-3---5-2------------------------------------------------|
D|------------------------------------------------------------------------|
A|------------------------------------------------------------------------|
E|------------------------------------------------------------------------|

Chorus

e|------------------------------------------------------------------------|
B|------------------------------------------------------------------------|
G|----------3----5---8-------------3----5-7-8-----------------------------|
D|----------3-3--5-6-8-8-----------3-3--5-7-8-----------------------------|
A|-------6--1-3--3-6-6-8--------6--1-3--3-5-6-----------------------------|
E|-3-5-6------1----4---6--3-5-6------3------------------------------------|

Verse
Pre Chorus
Chorus

Under Solo 
e|--------------------------------------------------------------------------------|
B|--------------------------------------------------------------------------------|
G|--------------------------------------------------------------------------------|
D|------------.--------------------.----------------------.----------------.- ----|
A|--7-5---5-7-7-(x2)-10-7----7-10-10-(x2)-12-10----10-12-12-(x2)-7-5---5-7-7-(x2)-|
E|------7-----------------10--------------------12-------------------7------------|

Vocal Intro
Ends on C chord

Chorus x1

'Up' Chorus

e|------------------------------------------------------------------------|
B|------------------------------------------------------------------------|
G|---------5------5------------5----7-9-10--------------------------------|
D|---------5-5--3-5-5----------5-5--7-9-10--------------------------------|
A|-------8-3-5--3-3-5--------8-3-5--5-7-8---------------------------------|
E|-5-7-8-----3--1---3--5-7-8-----3----------------------------------------|

e|------------------------------------------------------------------------|
B|------------------------------------------------------------------------|
G|---------5----7---10-------------5----7-9-10----------------------------|
D|---------5-5--7-8-10-10----------5-5--7-9-10--repeat till end-----------|
A|-------8-3-5--5-8-8--10--------8-3-5--5-7-8-----------------------------|
E|-5-7-8-----3----6----8---5-7-8-----3------------------------------------|




************************************

| sl  slide up
| .   staccato
| \   slide down
| h   hammer-on
| p   pull-off
| ~   vibrato
| +   harmonic
| x   Mute note
| b   Bend
| pb  Pre-bend
| br  Bend release
| pbr Pre-bend release
| brb Bend release bend

************************************
Добавлено: 22.08.2013
Другие материалы по этой песне:
  • Аккорды и текст

Страница создана 22.08.2013
http://primanota.ru/robin-beck/the-one-chords.htm
Привет, Гость.
Предлагаем пройти революционный курс по гитаре.
Подарок от PrimaNota.Ru, забирай!