PrimaNota.ru - самый крупный в мире бесплатный архив песенных текстов, аккордов, табулатур и нот


Roberto Carlos - Un Gatto Nel Blu - бас-таба, видео

Регистрация Запомнить меня
Войти через:  Facebook Google Twitter Vk Yandex Mail.ru

Roberto Carlos - Un Gatto Nel Blu - бас-таба, видео

Печатать
Просмотров: 91
Уроки эстрадного вокала в Санкт-Петербурге
UN GATTO NEL BLU
Roberto Carlos - San Remo 1972

              
G||-------|---------|----------|----------|----------|---------|----------|
D||-------|---------|--1-------|----------|--3-------|--1------|----------|
A||-------|---------|----------|--1-------|----------|---------|----------|
E||-------|---------|----------|----------|----------|---------|----------|

             
---------|----------|----------|----------|----------|---------|----------|
--1------|----------|----------|--3-------|--1-------|--1------|--1-------|
---------|--1-------|--1-------|----------|----------|---------|----------|
---------|----------|----------|----------|----------|---------|----------|

          
----------|----------|----------|---------|----------|--------------------|
----------|----------|--1-------|---------|--1-------|--1-----------------|
----------|----------|----------|--1------|-------1--|-----------------1--|
--4-------|--4-------|----------|---------|----------|--------------------|


------------------|-------------------|------------------|------------------|
--1----1--1-------|-------------------|------------------|--3-----3---------|
------------------|--1-----1--1-------|--1-----1--1------|-----------1------|
------------------|-------------------|------------------|------------------|


------------------|-------------------|------------------|--1----1--1-------|
--1----1--1-------|--1-----1--1-------|--1-----1--1------|---------------1--|
---------------1--|----------------1--|------------------|------------------|
------------------|-------------------|------------------|------------------|


--1----1--1----1--|-------------------|------------------|------------------|
------------------|--1-----1--1----1--|------------------|--1----1--1----1--|
------------------|-------------------|--1-----1--1---1--|------------------|
------------------|-------------------|------------------|------------------|


------------------|--3------------3---|--5---------------|------------------|
--5------------5--|----------3--------|---------5--------|--3---------------|
----------5-------|-------------------|--------------3---|--------3----3----|
------------------|-------------------|------------------|------------------|


------------------|--1-----------1----|--3------------3--|--------3---------|
--3------------3--|---------1---------|----------3-------|--1----------1----|
----------3-------|-------------------|------------------|------------------|
------------------|-------------------|------------------|------------------|


---------3----7---|--5----------------|--1------3--------|--------3---------|
--5---------------|---------5----1----|------------------|--1----------1----|
------------------|-------------------|--------------1---|------------------|
------------------|-------------------|------------------|------------------|


---------3----7---|--5----------------|--1-----------1---|--3---------------|
--5---------------|---------5----1----|---------3--------|------------------|
------------------|-------------------|------------------|--------1---------|
------------------|-------------------|------------------|------------------|


------------------|-------------------|------------------|------------------|
--1----1--1----1--|-------------------|------------------|--1----1----------|
------------------|--1------1--1------|--1------1--1-----|----------2----2--|
------------------|-------------------|------------------|------------------|


------------------|-------------------|------------------|------------------|
--2-----2--2------|--2------2--2------|--4------4--4-----|------------------|
------------------|-------------------|---------------4--|--2-----2--2------|
------------------|-------------------|------------------|------------------|


------------------|-------------------|------------------|------------------|
--4-----4---------|--2------2--2------|--2------2--2-----|--2----2--2----2/-|
-----------2------|-------------------|------------------|------------------|
------------------|-------------------|------------------|------------------|


------------------|-------------------|------------------|------------------|
--7----7--7-------|--7-----7--7----7\-|--2-----2--2---2--|------------------|
-------------7----|-------------------|------------------|--2----2--2----2--|
------------------|-------------------|------------------|------------------|


------------------|-------------------|--------------4---|------------------|
--2----2--2----2--|--6-----------6----|--------4---------|------------------|
------------------|---------6---------|--2---------------|--4----------4----|
------------------|-------------------|------------------|-------4----------|


------------------|-------------------|--2----------2----|--4---------------|
--4---------------|--4-----------4----|--------2---------|--------4---------|
---------4----4---|---------4---------|------------------|------------2-----|
------------------|-------------------|------------------|------------------|


---------4--------|---------4----8----|--6---------------|--2-----4---------|
--2-----------2---|--6----------------|--------6----2----|------------------|
------------------|-------------------|------------------|--------------2---|
------------------|-------------------|------------------|------------------|


------------------|---------4----8----|--6---------------|--2------4--------|
--2----2---2---4--|--6----------------|--------6----2----|------------------|
-----2---2--------|-------------------|------------------|-------------2----|
------------------|-------------------|------------------|------------------|


---------4--------|---------4----8----|--6---------------|--2----------2----|
--2-----------2---|--6----------------|--------6----2----|--------4---------|
------------------|-------------------|------------------|------------------|
------------------|-------------------|------------------|------------------|


--4---------------|-------------------|------------------|---------|-------||
------------------|--2-----2--2-------|--2-----2--2------|--2------|--2----||
------------------|-------------------|------------------|------2--|-------||
------------------|-------------------|------------------|---------|-------||

Bass Cover:
http://www.youtube.com/watch?v=93vvoAE7FKg
richard.mor12@gmail.com

Добавлено: 24.09.2013
Другие материалы по этой песне:
  • Аккорды и текст

Страница создана 24.09.2013
http://primanota.ru/roberto-carlos/un-gatto-nel-blu-chords.htm
Привет, Гость.
Предлагаем пройти революционный курс по гитаре.
Подарок от PrimaNota.Ru, забирай!