PrimaNota.ru - самый крупный в мире бесплатный архив песенных текстов, аккордов, табулатур и нот


Robert Randolph And The Family Band - I Need More Love - бас-таба, видео

Регистрация Запомнить меня
Войти через:  Facebook Google Twitter Vk Yandex Mail.ru

Robert Randolph And The Family Band - I Need More Love - бас-таба, видео

Печатать
Просмотров: 140
This song is pretty fast but it is also very simple.

t=tab
h=hammer on
/slide

G||----------------------------------------------------------------|
D||-------------14-12------12-14-12h14-----------------------------|
A||--------------------14------------------------------------------|
E||---t0h12--------------------------------------------------------|


G||--------------------------------------------------------------|
D||------------14-12--------/17----14-12-------------------------|
A||--------------------14------------------14--------------------|
E||---t0h12------------------------------------------------------|


Sometimes he plays this:
G||----------------------------------------------------------|
D||--------14----11-----12-----14----------------------------|
A||----------------------------------------------------------|
E||----12-----9------8-----12--------------------------------|

Listen to the song to know when.


This is my first tab so don't write a lot of hatemails if it's not absolutely correct.

For corrections= Jens(DK)  Nick_My_name@hotmail.com

Robert Randolph & The Family Band Official site: http://www.robertrandolph.net/
Добавлено: 16.03.2012
Другие материалы по этой песне:
  • Аккорды и текст

Страница создана 16.03.2012
http://primanota.ru/robert-randolph-and-the-family-band/i-need-more-love-chords.htm
Привет, Гость.
Предлагаем пройти революционный курс по гитаре.
Подарок от PrimaNota.Ru, забирай!