PrimaNota.ru - самый крупный в мире бесплатный архив песенных текстов, аккордов, табулатур и нот


Robert Randolph And The Family Band - Good Times - таба, видео

Регистрация Запомнить меня
Войти через:  Facebook Google Twitter Vk Yandex Mail.ru

Robert Randolph And The Family Band - Good Times - таба, видео

Печатать
Просмотров: 97
Уроки эстрадного вокала в Санкт-Петербурге
Robert Randolph & The Family Band
"Good Times(3 Stroke)"
>From the Album - Unclassified
Transcribed by Charlie Swing

Here's the first RR & the Family Band tab!
Enjoy. Remember these tabs are transcribed for a six-string.
Rob uses the 13-string steel guitar.


Verse
E-------------------------------
B-------------------------------
G----9p7------------------------
D----------9------------5--7----
A----------------5--7-----------
E-------------------------------



Chorus

      G     A       G      Bm     G     D   Eb
E-------------------------------------------------
B-------------------------------------------------
G---------------------------------------7----8----
D-----5-----7-------5------9------5-----7----8----
A-----5-----7-------5------9------5-----5----6----
E-----3-----5-------3------7------3---------------



Repeat Verse


Chorus


Bridge-
Mainly drums and lots of wah, then..

E------------------------------------------------------------
B------------------------------------------------------------
G------------------------------------------------------------
D-----------5-5--7--8---10----12------------5-5---7---5------
A------7-7-----------------------------7-7-------------------
E------------------------------------------------------------

Repeat throughout solo


Chorus
     
Добавлено: 26.06.2013
Вам также может быть интересно:
Другие материалы по этой песне:
  • Аккорды и текст

Страница создана 26.06.2013
http://primanota.ru/robert-randolph-and-the-family-band/good-times-chords.htm
Привет, Гость.
Предлагаем пройти революционный курс по гитаре.
Подарок от PrimaNota.Ru, забирай!