PrimaNota.ru - самый крупный в мире бесплатный архив песенных текстов, аккордов, табулатур и нот


Robert Johnson - Stop Breakin Down - таба, видео

Регистрация Запомнить меня
Войти через:  Facebook Google Twitter Vk Yandex Mail.ru

Robert Johnson - Stop Breakin Down - таба, видео

Печатать
Просмотров: 92
"STOP BREAKIN DOWN BLUES"

by: ROBERT JOHNSON

contact me: kangolkid420@yahoo.com

tabbed by: Richard Tupica

important!!!!!!!!

tuning: d g d g b

check out the WHITE STRIPES cover of blues classic!!!

here is the chords, below is the tab!!!*

Intro:

G/7

verse:

G/7 ("everytime i'm walkin'-down the street,some pretty mamma start
breakin'down,stop...")

chorus:

C/7 ("down----yeah--stop breakin' down...")

G/7 (.........................the stuff I...")

D/7 ("got'll bust your brains out, ba-by--Hoo...")

C/7 ("...it'll make you lose-your mind.......")

G (outro "turn around")

 

intro: palm mute bass line throughout whole song

G/7 G/7

-------------------------------------------------5----5----5-------------------
------------------------------------------------------0------------------------
----------0---0---0---0---0---0---0---0----------------------------------------
--------------------------------------0-----0----------------------------------
--------------------------------------------0---------0----------0-----0---3---4
------0-------3-----------2-------0--------------------------------------------

verse:

G/7 G/7

"ev-'ry time I'm walking...." "down the street...."

----------5------------5-------------------------5-----5-----5-----------------
-------------------------------------------------------------------------------
-------------------------------------------------------------------------------
--------------------------------------------0----------0----------0------------
----0------------0------------0-----3---4---0----------0----------0-----0--3---4
-------------------------------------------------------------------------------

G/7 G/7

"some pretty mam-ma start breakin'" "down with me, stop breakin'"

--------5--5-------5-----------------------------5----5----5-------------------
-------------------------------------------------------------------------------
---------------------------------------------------------------------0---------
----0------0--------------0-----------------0---------0--------------0---------
----0------0--------------0-------3----4----0---------0-----------------------0-
-------------------------------------------------------------------------------

Chorus:

C/7 C/7

"...down" "Yes, stop breakin' down"

---------5---8---8---8---8-------------------------8---8---8---8---8-----------
---------------------5--------5------------------------------------------------
----5--------5-------5--------5--------------5---------5-------5---------------
----5--------5-------5--------5---5--------------------5-------5----------5----
-------------------------------------------------------------------------------
-------------------------------------------------------------------------------

G/7 G/7 "the stuff I..."

---------5----5----5----5-------------------------3----3-------------3---3---3-
------------------------------------------------------------0----0-------------
-------------------0-----------------------------------------------------------
---------0---------0----------0------------------------0-------------0-------0-
---0-----0---------0----------0-----0--------0---------0-------------0-------0-
------------------------------------2--------0---------------------------------

D/7 C/7

"Got'll bust your brains out baby..Hoo!" "It'll make you lose your mind"

------10----10------------------------------------8---8------8-------(5)-------
-------------------------------------------------------------------------------
------------7------------0-------0-----------5----5----------5----------------5
--7---------7------------0-------0-----------5----5---------------------------5
-------------------------------------------------------------------------------
-------------------------------------------------------------------------------
Outro/Turnaround:

G-maj G-maj (turnaround cont...)

-------5---5---5--5---0------------------------5---5---5---5-------------------
-----------0------0---------0--------------------------------------------------
----------------------------3------0-------------------------------------------
--0---------------------------------------0--------0-------0-------------------
--0-------------------------0-------------0--------0-------0--------0-----3----
----------------------------0--------------------------------------------------

(REPEAT)

!!!Listen to the track to fit it all together, the notes are right, just
work with timing!!!

!!!This is my first tab posting, I hope it doesn't
suck!!!!!!!!!!!!!!!!!!!!!!!!!!!!!!!!!!!!!

KICK OUT THE
JAMS!!!!!!!!!!!!!!!!!!!!!!!!!!!!!!!!!!!!!!!!!!!!!!!!!!!!!!!!!!!!!!!!!!!!!!!!!!!
     
Добавлено: 17.08.2013
Другие материалы по этой песне:
  • Аккорды и текст

Страница создана 17.08.2013
http://primanota.ru/robert-johnson/stop-breakin-down-chords.htm
Привет, Гость.
Предлагаем пройти революционный курс по гитаре.
Подарок от PrimaNota.Ru, забирай!