PrimaNota.ru - самый крупный в мире бесплатный архив песенных текстов, аккордов, табулатур и нот


Robert Euvino - Stronghold - Sad Times - таба, видео

Регистрация Запомнить меня
Войти через:  Facebook Google Twitter Vk Yandex Mail.ru

Robert Euvino - Stronghold - Sad Times - таба, видео

Печатать
Просмотров: 156
Title: Sad Times
Composer: Rober Euvino
Game: Stronghold
Tab: Matias Lavik

Notes:
- N.H. = Natural Harmonic
- All chords should be played as (slow) downstrokes
- Wrong key. You may tune the guitar down one whole note in order to get the same key as in original

E|-------------------------|-------8---7---|-7--\5---5-----|-----1---1---0---0-------|
B|---------1---3---3--/5---|---------------|---------------|---------------------3---|
G|-------------------------|---------------|---------------|-------------------------|
D|-----2-------------------|---------------|---------------|-------------------------|
A|-0-----------------------|---------------|---------------|-------------------------|
E|-------------------------|---------------|---------------|-------------------------|

                                          N.H.  N.H.
E|----------------|----------------|-----------12---|----------------|--------|
B|-3-----5---3----|-1-----3---1----|-0----12--------|-1-----3---1----|-0------|
G|-2--------------|-2--------------|-1--------------|-2--------------|-1------|
D|-0--------------|-2--------------|-2--------------|-2--------------|-2------|
A|----------------|----------------|-2--------------|-0--------------|-2------|
E|----------------|----------------|-0--------------|----------------|-0------|


E|-------------|----------|-----|
B|-1-----3---1-|-0--------|-----|
G|-2-----------|-1-----0--|-2---|
D|-2-----------|-2--------|-----|
A|-0-----------|-2--------|-0---|
E|-------------|-0--------|-----|


E|----------------3---/5--|-3---|----------------3---/5--|--8------|
B|-----------1------------|-0---|-----------1------------|--5------|
G|------------------------|-0---|------------------------|--5------|
D|------2-----------------|-2---|------2-----------------|--7------|
A|-0----------------------|-----|-0----------------------|--0------|
E|------------------------|-----|------------------------|---------|



E|----------------3---/5-------|-3------|-0-----1---0----|----------------|
B|-----------1-----------------|-0------|-1--------------|-3-----5---3----|
G|-----------------------------|-0------|-0--------------|-2--------------|
D|------2----------------------|-2------|-2--------------|-0--------------|
A|-0---------------------------|--------|-3--------------|----------------|
E|-----------------------------|--------|----------------|----------------|


E|----------------|--------|----------------|------------|--------|----------------|
B|-1-----3---1----|-0------|-1-----3---1----|-0----------|--------|----------------|
G|-2--------------|-1------|-2--------------|-1-----0----|-2------|----------------|
D|-2--------------|-2------|-2--------------|-2----------|--------|----------------|
A|-0--------------|-2------|-0--------------|-2----------|-0------|----------------|
E|----------------|-0------|----------------|-0----------|--------|----------------|


E|-7-----8---7----|-5------|-7-----8---7----|-8------|-7-----8---7----|-5----7----5----|
B|-5--------------|-5------|-5--------------|-8------|-5--------------|-5--------------|
G|-5--------------|-5------|-5--------------|-5------|-5--------------|-5--------------|
D|-5--------------|-3------|-5--------------|--------|-5--------------|-3--------------|
A|----------------|--------|----------------|--------|----------------|----------------|
E|----------------|--------|----------------|--------|----------------|----------------|


E|-3-----5---3--|-0-----1---0---|----------------|---------------|--------|----------------|
B|-5------------|-1-------------|-3-----5---3----|-1-----3---5---|-3------|-1----3----5----|
G|-4------------|-0-------------|-2--------------|-2-------------|-2------|-2--------------|
D|-2------------|-2-------------|-0--------------|-2-------------|-3------|-2--------------|
A|--------------|-3-------------|----------------|-0-------------|-1------|-0--------------|
E|--------------|---------------|----------------|---------------|--------|----------------|


E|--------|----------------|------------|--------|----------------|
B|-3------|-1-----3---1----|-0----------|--------|----------------|
G|-2------|-2--------------|-1-----0----|-2------|----------------|
D|-3------|-2--------------|-2----------|--------|----------------|
A|-1------|-0--------------|-2----------|-0------|----------------|
E|--------|----------------|-0----------|--------|----------------|



Добавлено: 23.06.2016
Вам также может быть интересно:
Другие материалы по этой песне:
  • Аккорды и текст

Страница создана 23.06.2016
http://primanota.ru/robert-euvino/stronghold-sad-times-chords.htm
Привет, Гость.
Предлагаем пройти революционный курс по гитаре.
Подарок от PrimaNota.Ru, забирай!