PrimaNota.ru - самый крупный в мире бесплатный архив песенных текстов, аккордов, табулатур и нот


Robert Euvino - Stronghold - The Maiden - таба, видео

Регистрация Запомнить меня
Войти через:  Facebook Google Twitter Vk Yandex Mail.ru

Robert Euvino - Stronghold - The Maiden - таба, видео

Печатать
Просмотров: 126
Title: The Maiden
Game: Stronghold
Author: Robert Euvino
Tab: Matias Lavik

Notes:
- All chords are (slow) downstrokes
- Hold all chord notes until next chord
                Dm                    F                 C                     Dm
E|------0-----|-1------|-0----------|-1------|--------|-3------|-1----0-----|-1------|
B|-3----------|-3------|------3-----|-1------|--------|-1------|------------|-3------|
G|------------|-2------|------------|-2------|--------|-0------|------------|-2------|
D|------------|-0------|------------|-3------|--------|-2------|------------|-0------|
A|------------|--------|------------|-3------|--------|-3------|------------|--------|
E|------------|--------|------------|-1------|--------|--------|------------|--------|

                Dm                F                 C                         Dm
E|------0-----|-1------|--------|-1------|--------|-3----------|------------|--------|
B|-3----------|-3------|--------|-1------|--------|-1----------|------------|-3------|
G|------------|-2------|--------|-2------|--------|-0----------|------0-----|-2------|
D|------------|-0------|--------|-3------|--------|-2----------|-2----------|-0------|
A|------------|--------|--------|-3------|--------|-3-----3----|------------|--------|
E|------------|--------|--------|-1------|--------|------------|------------|--------|

                Dm                    Am                    Dm
E|------0-----|-1------|-0----------|--------|------------|--------|--------|--------|
B|-3----------|-3------|------3-----|-1------|------1-----|-3------|--------|--------|
G|------------|-2------|------------|-2------|-2----------|-2------|--------|--------|
D|------------|-0------|------------|-2------|------------|-0------|--------|--------|
A|------------|--------|------------|-0------|------------|--------|--------|--------|
E|------------|--------|------------|--------|------------|--------|--------|--------|

                Bb                    Am                Bb                    Am
E|------------|--------|------------|--------|--------|--------|------------|--------|
B|------1-----|-3------|-1----------|-1------|--------|-3------|-1----------|-1------|
G|-2----------|-3------|------3-----|-2------|--------|-3------|------3-----|-2------|
D|------------|-3------|------------|-2------|--------|-3------|------------|-2------|
A|------------|-1------|------------|-0------|--------|-1------|------------|-0------|
E|------------|--------|------------|--------|--------|--------|------------|--------|

            Em                Am                                           
E|--------|--------|--------|-----0--|--------|--------|
B|--------|--------|--------|----1---|--------|--------|
G|--------|-0------|--------|---2----|--------|--------|
D|--------|-2------|--------|--2-----|--------|--------|
A|--------|-2------|--------|-0------|--------|--------|
E|--------|-0------|--------|--------|--------|--------|

                    Dm               Am               Cm               Gm
E|-----------0----|-1----0---------|----------------|----------------|----------------|
B|------3---------|-3---------3----|-1----3----5----|-4----3---------|-3--------------|
G|----------------|-2--------------|-2--------------|-5---------5----|-3----3---------|
D|----------------|-0--------------|-2--------------|-5--------------|-5---------5----|
A|----------------|----------------|-0--------------|-3--------------|-5--------------|
E|----------------|----------------|----------------|----------------|----------------|

   Bb               Am               G6               Am
E|----------------|----------------|----------------|-----0--|--------|
B|-3----1---------|-1--------------|----------------|----1---|--------|
G|-3---------3----|-2----2---------|-0--------------|---2----|--------|
D|-3--------------|-2---------2----|-2----2---------|--2-----|--------|
A|-1--------------|-0--------------|-2---------2----|-0------|--------|
E|----------------|----------------|-3--------------|--------|--------|



Добавлено: 23.06.2016
Другие материалы по этой песне:
  • Аккорды и текст

Страница создана 23.06.2016
http://primanota.ru/robert-euvino/stronghold-maiden-chords.htm
Привет, Гость.
Предлагаем пройти революционный курс по гитаре.
Подарок от PrimaNota.Ru, забирай!