PrimaNota.ru - самый крупный в мире бесплатный архив песенных текстов, аккордов, табулатур и нот


Robert De Visee - Passacaille - таба, видео

Регистрация Запомнить меня
Войти через:  Facebook Google Twitter Vk Yandex Mail.ru

Robert De Visee - Passacaille - таба, видео

Печатать
Просмотров: 91
-------------------------------------------------------------------------------
                             Passacaille - de Visee
-------------------------------------------------------------------------------
Tabbed by: Bernardo Sanchez
E-mail: bernardo.s.v98@gmail.com

Tuning: Standard EADGBe

e|--0----0-2-|-3--2--3-2p0-|--------------|-0---0-------|-0------------------||====Repeat
B|--0--0-----|-0--1--------|-4----0-----0-|-1-----4---5-|-0------------------||
G|--0--------|-0--2--------|-4--2-5-4-2---|---------2---|-0------------------||
D|--2--------|-2-----------|-0----------0-|-----4-------|-2------------------||
A|--2--------|----0--------|-2------------|-3-0-2-------|--------------------||
E|--0--------|-------------|--------------|-------------|--------------------||

e|--7-5--5tr3p2-|-0---5-3-2p0-|-----0-------|-2---2---0-|-0------------------||====Repeat
B|----------0---|-------------|-4---0-3-2---|-2-5-5-4---|-0------------------||
G|--------------|-5-4-2-------|-4-2-1---2-0-|-3---4-----|-0------------------||
D|--------------|-------------|-------------|-4---------|-2------------------||
A|--------------|-------------|-------------|-------2---|--------------------||
E|--------------|-------------|-------------|-----------|--------------------||

e|--0----0-2-|-3--2--3-2p0-|--------------|-0---0-------|-0------------------||====Repeat
B|--0--0-----|-0--1--------|-4----0-----0-|-1-----4---5-|-0------------------||
G|--0--------|-0--2--------|-4--2-5-4-2---|---------2---|-0------------------||
D|--2--------|-2-----------|-0----------0-|-----4-------|-2------------------||
A|--2--------|----0--------|-2------------|-3-0-2-------|--------------------||
E|--0--------|-------------|--------------|-------------|--------------------||


e|--7------7-|-7-7p5---5-|-5--3--3-|-2-3-2-----|-0---------------------------||====Repeat
B|--8--------|-7-5-------|-4--5--3-|-2---4---5-|-0---------------------------||
G|--9-8tr9---|-7-6---5---|-4--4----|-3---4-2---|-0---------------------------||
D|-----------|-----------|---------|-----------|-2---------------------------||
A|-----------|-----------|---------|-----------|-----------------------------||
E|-----------|-----------|---------|-----------|-----------------------------||

e|--0----0-2-|-3--2--3-2p0-|--------------|-0---0-------|-0------------------||====Repeat
B|--0--0-----|-0--1--------|-4----0-----0-|-1-----4---5-|-0------------------||
G|--0--------|-0--2--------|-4--2-5-4-2---|---------2---|-0------------------||
D|--2--------|-2-----------|-0----------0-|-----4-------|-2------------------||
A|--2--------|----0--------|-2------------|-3-0-2-------|--------------------||
E|--0--------|-------------|--------------|-------------|--------------------||

e|--3---|-2------2---|-0-------2-3-|-0--2tr0---|-0---------------------------||====Repeat
B|--0-2-|-1----2---0-|-------2-----|----0----4-|-0---------------------------||
G|------|------------|-4--4p3------|-2--4------|-0---------------------------||
D|--4---|-1--0-------|-------------|-----------|-2---------------------------||
A|------|------------|-4-----------|-3---------|-----------------------------||
E|------|------------|-------------|-----------|-----------------------------||

e|--0----0-2-|-3--2--3-2p0-|--------------|-0---0-------|-0------------------||====Repeat
B|--0--0-----|-0--1--------|-4----0-----0-|-1-----4---5-|-0------------------||
G|--0--------|-0--2--------|-4--2-5-4-2---|---------2---|-0------------------||
D|--2--------|-2-----------|-0----------0-|-----4-------|-2------------------||
A|--2--------|----0--------|-2------------|-3-0-2-------|--------------------||
E|--0--------|-------------|--------------|-------------|--------------------||

e|--0-2-3-5-|-7-----0-2-3-|-5-------0---|---3-3tr2-0-|-0---------------------||====Repeat
B|----------|-----3-------|-----2-4-----|------------|-0---------------------||
G|----------|-------------|---0-2-4-5-4-|-2------0---|-0---------------------||
D|------2-4-|-5-------0-2-|-4-----------|------------|-2---------------------||
A|----------|---0-2-4-----|-------------|------------|-----------------------||
E|----------|-------------|-------------|------------|-----------------------||

e|--0----0-2-|-3--2--3-2p0-|--------------|-0---0-------|-0------------------||====Repeat
B|--0--0-----|-0--1--------|-4----0-----0-|-1-----4---5-|-0------------------||
G|--0--------|-0--2--------|-4--2-5-4-2---|---------2---|-0------------------||
D|--2--------|-2-----------|-0----------0-|-----4-------|-2------------------||
A|--2--------|----0--------|-2------------|-3-0-2-------|--------------------||
E|--0--------|-------------|--------------|-------------|--------------------||



************************************
| tr   trill-melodic ornament consisting of a rapid alternation between a 
| principal note and the note a whole tone or semitone above it.
| /   slide up
| \   slide down
| h   hammer-on
| p   pull-off
| ~   vibrato
| +   harmonic
| x   Mute note
| b   Bend
| pb  Pre-bend
| br  Bend release
| pbr Pre-bend release
| brb Bend release bend
************************************
Hey guys this is my first tab I hope it was easy to understand and you enjoyed it. This is a very beautiful
piece and its great for impressing others. Hopefully there are many more tabs to come. Have a great day!
Добавлено: 12.06.2016
Другие материалы по этой песне:

Страница создана 23.02.2012
http://primanota.ru/robert-de-visee/passacaille-chords.htm
Привет, Гость.
Предлагаем пройти революционный курс по гитаре.
Подарок от PrimaNota.Ru, забирай!