PrimaNota.ru - самый крупный в мире бесплатный архив песенных текстов, аккордов, табулатур и нот


Robert Cray - Nothin But A Woman - таба, бас-таба, видео

Регистрация Запомнить меня
Войти через:  Facebook Google Twitter Vk Yandex Mail.ru

Robert Cray - Nothin But A Woman - таба, бас-таба, видео

Печатать
Просмотров: 196
Уроки эстрадного вокала в Санкт-Петербурге
-----------------------------------------------------------------------------
                                          Artist - Robert Cray
                                         **********************
                                       Song - Nothin But A Woman 
                                      ***************************
                                        Album - Strong Persuader 
                                       **************************
                                          Tabbed By - Ayreon77
                                         **********************
-----------------------------------------------------------------------------
Tuning = Standard

Anyones learning this and gets a better sound for riff 2 & 3 let me know.

INTRO
******

Riff 1
  C
e|--------------|
B|--------------|
G|-5----------5-|
D|--------5-8---|
A|---6-7--------|
E|--------------|


Through the VERSES he alternates between these 2 different riffs below
You just have to listen to it, if you want to get the counting down right.
 C
e|--------------|--------------|
B|--------------|--------------|
G|-5----------5-|-5------5---5-|
D|--------5-8---|----------8---|
A|---6-7--------|---6-7--------|
E|--------------|--------------|


-----------------------------------------------
00:22
VERSE 1
********
C
You can give me an hour alone in a bank
Pay all my tickets, wipe the slate blank
You could buy me a car, fill up the tank
Tell me a boat full of lawyers just sank

Riff 2
  F
e|------------|
B|-----5------|
G|-3-5-5--3-5-|
D|-3-5----3-5-|
A|------------|
E|------------|
             F
But it ain't nothin' but a woman
Nothin' but a woman, no, no
C
Don't need nothin' but a woman

Riff 3
e|not sure on these parts-|
B|---------|--h------h----|
G|-3-5-3-5-|-0h1-3--0h1---|
D|-3-5-3-5-|-0-1-3--0-1---|
A|---------|--------------|
E|---------|--------------|

Any time I'm feelin' low


-----------------------------------------------
VERSE 2
********
C     
Well, you could fly us to Dallas on a jumbo-jet plane
If we run late and miss it, we can take the night train
When the pressure is on, things getting insane
Only one cure for that kind of strain
  F     
e|------------|
B|-----5------|
G|-3-5-5--3-5-|
D|-3-5----3-5-|
A|------------|
E|------------|
         F
It ain't nothin' but a woman
Nothin' but a woman, no, no
C
Don't need nothin' but a woman, yeah, yeah

e|not sure on these parts-|
B|---------|--h------h----|
G|-3-5-3-5-|-0h1-3--0h1---|
D|-3-5-3-5-|-0-1-3--0-1---|
A|---------|--------------|
E|---------|--------------|

To get me through the show

-----------------------------------------------
01:21
Sax Solo 
*********
Riff 1
Riff 2
Riff 3

-----------------------------------------------
01:50
SOLO
*****
   UB                          UB                       UB          UB
e|-8---8----8----8----8----8-|-8---8----8--8--b-----8-|-8---8----8--8--8----8-|
B|-11----11---11--------11---|-11----11------11~~~~---|-11----11----11---11---|
G|---------------------------|------------------------|-----------------------|
D|---------------------------|------------------------|-----------------------|
A|---------------------------|------------------------|-----------------------|
E|---------------------------|------------------------|-----------------------|
              hold
              bend
          b   |  |  rb                                                  s
e|----11-13--13-13-13--13-11-13-|-----------b-----------b-15-15--brb--17\-|
B|-13---------------------------|---s---13-15-15-13-13-15-------15--------|
G|------------------------------|-12\14-----------------------------------|
D|------------------------------|-----------------------------------------|
A|------------------------------|-----------------------------------------|
E|------------------------------|-----------------------------------------|

              s                             b
e|----------11\13-11---p--------8-|--h---8-10-10-8-10---8---s---|
B|----11-13----------13-11---p----|-8-10--------------8---11\13-|
G|-12----------------------10-8---|-----------------------------|
D|--------------------------------|-----------------------------|
A|--------------------------------|-----------------------------|
E|--------------------------------|-----------------------------|


e|------p---------------8-|---------------------------------------|
B|----13-11-13----p-------|-11-8--b------p------------------------|
G|--11---------10--8------|------10-10-10-8---------8-------p-----|
D|-x-----------------10---|-----------------10-8-10---10--10-8-10-|
A|------------------------|---------------------------------------|
E|------------------------|---------------------------------------|


-----------------------------------------------
VERSE 3
********
C
Yeah, you can make me a bet, give me a ten-point spread
Give me french brandy that'll clear my head
When it's all over, feeling half-dead
Only one thing, just like I said
  F     
e|------------|
B|-----5------|
G|-3-5-5--3-5-|
D|-3-5----3-5-|
A|------------|
E|------------|       
         F
It ain't nothin' but a woman
Nothin' but a woman, yeah, yeah
 
C
Any time I got a woman

e|not sure on these parts-|
B|---------|--h------h----|
G|-3-5-3-5-|-0h1-3--0h1---|
D|-3-5-3-5-|-0-1-3--0-1---|
A|---------|--------------|
E|---------|--------------|

Things can't be too bad


-----------------------------------------------
VERSE 4
********
C
You can buy me a house, turn over the deed
Bring six pounds of California weed
But my weakness ain't drugs, whiskey, or greed
Only one thing that youn Bob needs
  F     
e|------------|
B|-----5------|
G|-3-5-5--3-5-|
D|-3-5----3-5-|
A|------------|
E|------------|       
         F
It ain't nothin' but a woman
Nothin' but a woman
C
Yeah, you right

Ain't nothin' but a woman to get me through the night

e|not sure on these parts-|
B|---------|--h------h----|
G|-3-5-3-5-|-0h1-3--0h1---|
D|-3-5-3-5-|-0-1-3--0-1---|
A|---------|--------------|
E|---------|--------------|


RIFF 1 - to the end and fade out
*********************************
Mmmmm

It's like I said, man
Ain't nothin' but a woman

I'm tryin to tell yea

Yeah, look at her

And that one over there


ENJOY............
Добавлено: 29.05.2014
Другие материалы по этой песне:
  • Аккорды и текст

Страница создана 29.05.2014
http://primanota.ru/robert-cray/nothin-but-a-woman-chords.htm
Привет, Гость.
Предлагаем пройти революционный курс по гитаре.
Подарок от PrimaNota.Ru, забирай!