PrimaNota.ru - самый крупный в мире бесплатный архив песенных текстов, аккордов, табулатур и нот


Robert Cray - The 12 Year Old Boy Live - бас-таба, видео

Регистрация Запомнить меня
Войти через:  Facebook Google Twitter Vk Yandex Mail.ru

Robert Cray - The 12 Year Old Boy Live - бас-таба, видео

Печатать
Просмотров: 49
Robert CRAY Band (Live)
The 12 year old boy
(Montreux Jazz Festival)

Bassist: Richard Cousins

Bass Tabs
Tuning : EADG
Tempo: 111 bpm 4/4

Key signature: C
Tuning: E A D G


>> Intro: 00:01 / 00:07
G|--------- -------|-
D|--------- -------|-
A|-3~--0-3- -0-1-2-|-
E|--------- -------|-
 
G|-----------------2-5-2-||-----------------------|-
D|-------2--2-5--5-------||-----------------------|-
A|--3g-------------------||------0--0-3--x--0-1-2-|- 
E|-----------------------||-1g--------------------|-

G|------------------2--2-5-------------------|-
D|--------2--2-5--5--------------------------|-
A|--3g--3-------------------0-1-2-3--3-5-3---|-
E|-----------------------------------------5-|-

G|-----------------------||-----------------------|-
D|---------------0-3-0---||-----------------------|-
A|-------0--0-3----------||------0--0-3--x--0-1-2-|- 
E|0-1g-------------------||-1g--------------------|-

G|------------------2--2-------------------|-
D|--------2--2-5--5------------------------|-
A|--3g--3----------------3--3-1--1---------|-
E|---------------------------------5--5-3--|-

G|-----------------------||-----------------------|-
D|-----------------------||-----------------------|-
A|------2--2-5-----------||------0--0-3--x--0-1-2-|-
E|2-3g-----------3-0-3g--||-1g--------------------|-

G|-----------------------------------------||-
D|--------2--2-3--3-4--4-5g----------------||-
A|--3g--3---------------------------0-1-2--||-
E|---------------------------3-5-3---------||-


Verse1: 00:55
G|-----------------2-5-2-||-----------------------|-
D|-------2--2-5--5-------||----------------0-3-0--|-
A|--3g-3-----------------||------0--0-3--3--------|- 
E|-----------------------||-1g-1------------------|-
I feel bad, I feel terrible 
I'm just as sad as I can be 

G|------------------2--2-------------------|-
D|--------2--2-5--5------------------------|-
A|--3g--3----------------3--3-1--1---------|-
E|---------------------------------5--5-3--|-

G|-----------------------||-----------------------|-
D|-----------------0-3-0-||-----------------0-3-0-|-
A|-------0--0-3--3-------||-------0--0-3--3-------|- 
E|0-1g-1-----------------||--1g-1-----------------|-
Oh, I feel bad, I feel terrible 
I'm just as sad as I can be 

G|------------------2--2---------------------|-
D|--------2--2-5--5--------------------------|-
A|--3g--3----------------3-3-3-3-------------|-
E|-------------------------------6--6-5--5-3-|-

G|-----------------------||-----------------------|-
D|-----------------2-5-2-||-----------------------|-
A|-------2--2-5--5-------||------0--0-3--x--0-1-2-|- 
E|2-3g-3-----------------||--1g-1-----------------|-
I let a boy, 12 years old
Take my baby away from me 

G|-----------------------------------------||-
D|--------2--2-3--3-4--4-5g----------------||-
A|--3g--3---------------------------7-6-5--||-
E|---------------------------3-5-3---------||-


Verse2: 01:43
G|-----------------2-5-2-||-----------------------|-
D|-------2--2-5--5-------||-----------------------|-
A|--3g-------------------||------0--0-3--x--0-1-2-|- 
E|-----------------------||-1g-1------------------|-
He used to hang around my crib 
Until late into the night 

G|------------------2--2-------------------|-
D|--------2--2-5--5------------------------|-
A|--3g--3----------------3--3-1--1---------|-
E|---------------------------------5--5-3--|-

G|-----------------------||-----------------------|-
D|-----------------0-3-0-||-----------------------|-
A|-------0--0-3--3-------||------0--0-3--x--0-1-2-|- 
E|0-1g-1-----------------||--1g-1-----------------|-
Oh, he used to hang around my crib 
Till late into the night 

G|------------------2--2---------------------|-
D|--------2--2-5--5--------------------------|-
A|--3g--3----------------3-3-3-3-------------|-
E|-------------------------------6--6-5--5-3-|-

G|-----------------------||-----------------------|-
D|-----------------5-2---||-----------------0-3---|-
A|-------2--2-5--5-----5-||------0--0-3--x------5-|- 
E|2-3g-3-----------------||--1g-1-----------------|-
Well, I never dreamed that my baby 
And that boy could be so tight 

G|-----------------------------------------||-
D|--------2--2-3--3-4--4-5g----------------||-
A|--3g--3---------------------------7-6-5--||-
E|---------------------------3-5-3---------||-


Instrumental(1): 02:32 
G|-----------------2-5-2-||-----------------------|-
D|-------2--2-5--5-------||-----------------------|-
A|--3g-3-----------------||------0--0-3--x--0-1-2-|- 
E|-----------------------||-1g-1------------------|-

G|------------------2--2-------------------|-
D|--------2--2-5--5------------------------|-
A|--3g--3----------------3--3-1--1---------|-
E|---------------------------------5--5-3--|-

G|-----------------------||-----------------------|-
D|-----------------0-3-0-||-----------------------|-
A|-------0--0-3--3-------||------0--0-3--x--0-1-2-|- 
E|0-1g-1-----------------||--1g-1-----------------|-

G|------------------2--2---------------------|-
D|--------2--2-5--5--------------------------|-
A|--3g--3----------------3-3-3-3-------------|-
E|-------------------------------6--6-5--5-3-|-

G|-----------------------||-----------------------|-
D|-----------------5-2---||-----------------0-3---|-
A|-------2--2-5--5-----5-||------0--0-3--x------5-|- 
E|2-3g-3-----------------||--1g-1-----------------|-

G|-------------------------------------------||-
D|--------2--2-3--3-4--4-5g------------------||-
A|--3g--3-----------------------------7-6-5--||-
E|---------------------------6-5-4-3---------||-


Instrumental(2): 02:32 
G|-----------------2-5-2-||-----------------------|-
D|-------2--2-5--5-------||----------------0-3-0--|-
A|--3g-3-----------------||------0--0-3--3--------|- 
E|-----------------------||-1g-1------------------|-

G|------------------2--2-------------------|-
D|--------2--2-5--5------------------------|-
A|--3g--3----------------3--3-1--1---------|-
E|---------------------------------5--5-3--|-

G|-----------------------||-----------------------|-
D|-----------------0-3-0-||-----------------0-3-0-|-
A|-------0--0-3--3-------||-------0--0-3--3-------|- 
E|0-1g-1-----------------||--1g-1-----------------|-

G|------------------2--2---------------------|-
D|--------2--2-5--5--------------------------|-
A|--3g--3----------------3-3-3-3-------------|-
E|-------------------------------6--6-5--5-3-|-

G|-----------------------||-----------------------|-
D|-----------------5-2---||-----------------------|-
A|-------2--2-5--5-----5-||------0--0-3--x--0-1-2-|- 
E|2-3g-3-----------------||--1g-1-----------------|-

G|-------------------------------------------||-
D|--------2--2-3--3-4--4-5g------------------||-
A|--3g--3-----------------------------7-6-5--||-
E|---------------------------6-5-4-3---------||-


Instrumental(3): 04:10
G|----------------------2-2-2-||----------------------------|-
D|--------2-2-2--5-5-5--------||----------------------------|-
A|-3-3-3----------------------||-3-3-3--1-1-1---------3-3-3-|- 
E|----------------------------||---------------5-5-5--------|-

G|----------------------2-2-2-||----------------------------|-
D|--------2-2-2--5-5-5--------||----------------------------|-
A|-3-3-3----------------------||-3-3-3--1-1-1---------3-3-3-|- 
E|----------------------------||---------------5-5-5--------|-

G|-----------------------||-----------------------|-
D|-----------------------||-----------------------|-
A|-------0--0-3--x-0-3-0-||------0--0-3--x--0-1-2-|- 
E|0-1g-1-----------------||--1g-1-----------------|-

G|------------------2--2-5-5-5--3-3-3--2-2----|-
D|--------2--2-5--5------------------------5g-|-
A|--3g--3-------------------------------------|-
E|--------------------------------------------|-

G|-----------------------||-----------------------|-
D|-----------------2-3-2-||-----------------------|-
A|-------2--2-5--5-------||------0--0-3--x--0-1-2-|- 
E|2-3g-3-----------------||--1g-1-----------------|-

G|-------------------------------------------||-
D|--------2--2-3--3-4--4-5g------------------||-
A|--3g--3-----------------------------7-6-5--||-
E|---------------------------6-5-x-3---------||-


Verse3/Outro: 04:57
G|-----------------2-5-2-||-----------------------|-
D|-------2--2-5--5-------||-----------------------|-
A|--3g-3-----------------||------0--0-3--x--0-1-2-|- 
E|-----------------------||-1g-1------------------|-
Well, if the young boy hangs around you 
You should do what I should've did 

G|------------------2--2-------------------|-
D|--------2--2-5--5------------------------|-
A|--3g--3----------------3--3-1--1---------|-
E|---------------------------------5--5-3--|-

G|-----------------------||-----------------------|-
D|-----------------0-3-0-||-----------------------|-
A|-------0--0-3--3-------||------0--0-3--x--0-1-2-|- 
E|0-1g-1-----------------||--1g-1-----------------|-
Oh, if the young boy hangs around you 
You should do what I should've did 

G|------------------2--2---------------------|-
D|--------2--2-5--5--------------------------|-
A|--3g--3----------------3-3-3-3-------------|-
E|-------------------------------6--6-5--5-3-|-

G|-----------------------||-----------------------|-
D|-----------------5-2---||-----------------------|-
A|-------2--2-5--5-----5-||-----------------------|- 
E|2-3g-3-----------------||--1.-------------------|-
Man, you send him on over to your neighbours 
And hope your neighbours like kids

G|---------------------------------------||
D|--------2--2-3--3-4--4-5g--------------||
A|--3g--3-----------------------0---3~~--||
E|---------------------------------------||

 
End: 06:27



--------------------------------------------------------------------------------


Tablature Legend ----------------  
| S  slap 
| P  pop 
| x  mute note
| .  full stop
| /  slide up 
| \  slide down
| >  link to next bar 
| h  hammer-on 
| p  pull-off 
| g  grace note 
| ~  vibrato 
| ^  brush up
Добавлено: 09.03.2016
Вам также может быть интересно:
Другие материалы по этой песне:
  • Аккорды и текст

Страница создана 09.03.2016
http://primanota.ru/robert-cray/12-year-old-boy-live-chords.htm
Привет, Гость.
Предлагаем пройти революционный курс по гитаре.
Подарок от PrimaNota.Ru, забирай!