PrimaNota.ru - самый крупный в мире бесплатный архив песенных текстов, аккордов, табулатур и нот


Robby Hunter Band - Que Paso - бас-таба, видео

Регистрация Запомнить меня
Войти через:  Facebook Google Twitter Vk Yandex Mail.ru

Robby Hunter Band - Que Paso - бас-таба, видео

Печатать
Просмотров: 59
Уроки эстрадного вокала в Санкт-Петербурге
Bass comes in around 0:19

Main Riff:

G|----------------------------------------------------------------|
D|------------8-10---------------8-10-----------------------------|
A|------10-10--------------10-10-------8-8-88-10-8----------------|
E|--88--------------88-88--------------------------8-66-66--6-7---|

Variation between 2:08 and 2:20

G|---------------------------|
D|---------------------------|
A|--8-8-88-10-8--------------|
E|--------------8-66-66--6-7-|

Outro

G|--------------------------------------------|
D|------------8-10---------5-7--5-7--5-7--5-7-|
A|------10-10----------88---------------------|
E|--88--------------66------------------------|
Добавлено: 21.12.2015
Вам также может быть интересно:
Другие материалы по этой песне:
  • Аккорды и текст

Страница создана 21.12.2015
http://primanota.ru/robby-hunter-band/que-paso-chords.htm
Привет, Гость.
Предлагаем пройти революционный курс по гитаре.
Подарок от PrimaNota.Ru, забирай!