PrimaNota.ru - самый крупный в мире бесплатный архив песенных текстов, аккордов, табулатур и нот


Robby Hunter Band - Hard On Me - таба, бас-таба, видео

Регистрация Запомнить меня
Войти через:  Facebook Google Twitter Vk Yandex Mail.ru

Robby Hunter Band - Hard On Me - таба, бас-таба, видео

Печатать
Просмотров: 127
http://robbyhunterband.com/
This tab plays the song in Drop D tuning.
Fun song to play, tricky rhythm but not impossible. I tried to use numbers for the 
repetitions but that may not be 100% exact.

E|---------------------------|
B|---------------------------|
G|-4--11-6--6--2--4-11---7-6-|
D|-5--12-7--7--4--5-12---9-7-| x2
A|---------------------------|
D|---------------------------|


E|----------------------------------|
B|----------------------------------|
G|-------------------4-3------------|
D|----------------------------------|
A|-5-4*------------------------0-1-2| x3
D|------5-5--5-6-7-------0-0--------|

*It may change the C# for a D on the sixth string, listen to the song. 

E|---------------------------|
B|---------------------------|
G|-4--11-6--6--2--4-11---7-6-|
D|-5--12-7--7--4--5-12---9-7-| x4
A|---------------------------|
D|---------------------------|





E|---------------------------------|
B|---------------------------------|
G|------------------4-3------------|
D|---------------------------------|
A|-5-4------------------------0-1-2| x4
D|------5-5--5-6-7-------0-0-------|


E|---------------------------------|
B|---------------------------------|
G|-4---4--2-4---4---4---4--2-4---4-|
D|-5---5--4-5---5---5---5--4-5---5-|
A|---------------------------------|
D|---------------------------------|


Solo
E|------------------------------------------------------/17|
B|-15-14-7-10~--10-7-10/14/12~-15-15-14-12-14--/17--/19----|
G|---------------------------------------------------------|
D|---------------------------------------------------------|
A|---------------------------------------------------------|
D|---------------------------------------------------------|



E|---------------------------|
B|---------------------------|
G|-4--11-6--6--2--4-11---7-6-|
D|-5--12-7--7--4--5-12---9-7-| x2
A|---------------------------|
D|---------------------------|


E|---------------------------------|
B|---------------------------------|
G|------------------4-3------------|
D|---------------------------------|
A|-5-4------------------------0-1-2| To the end
D|------5-5--5-6-7-------0-0-------|
Добавлено: 29.07.2013
Другие материалы по этой песне:
  • Аккорды и текст

Страница создана 29.07.2013
http://primanota.ru/robby-hunter-band/hard-on-me-chords.htm
Привет, Гость.
Предлагаем пройти революционный курс по гитаре.
Подарок от PrimaNota.Ru, забирай!