PrimaNota.ru - самый крупный в мире бесплатный архив песенных текстов, аккордов, табулатур и нот


Robby Hunter Band - Corazon - таба, видео

Регистрация Запомнить меня
Войти через:  Facebook Google Twitter Vk Yandex Mail.ru

Robby Hunter Band - Corazon - таба, видео

Печатать
Просмотров: 74
Уроки эстрадного вокала в Санкт-Петербурге
Intro:

E|--12--|
B|--12--|
G|--12--|
D|------|
A|------|
E|------|

Main Riff: 

E|--12--xxx--12--xxx--10--xxx--10--xxx--|
B|--12--xxx--12--xxx--12--xxx--12--xxx--|
G|--12--xxx--12--xxx--12--xxx--12--xxx--|
D|--------------------------------------|
A|--------------------------------------| or play it without the muted notes
E|--------------------------------------|
Same during second verse except slide to the chords


A second guitar plays this during parts of the verses and the chorus:
E|-------------------------|
B|------------------12-xxx-|
G|--12--14-14--xxx14-------|
D|-------------------------|
A|-------------------------|
E|-------------------------|

Outro:

E|----------------------------------------------------------------------|
B|------------------------------------------------------------------12--|
G|----------12--12--12----------12--12--12----------12--12--12--14------|
D|--12--14--------------12--14--------------12--14----------------------|
A|----------------------------------------------------------------------|
E|----------------------------------------------------------------------|


E|--------------------------------------------------------------|
B|------------------------------------------12--13--12----------|
G|----------12--12--12----------12--12--12--------------14--12--|
D|--12--14--------------12--14----------------------------------|
A|--------------------------------------------------------------|
E|--------------------------------------------------------------|

Haven't figured out that last "solo" bit yet
Добавлено: 21.12.2015
Другие материалы по этой песне:
  • Аккорды и текст

Страница создана 21.12.2015
http://primanota.ru/robby-hunter-band/corazon-chords.htm
Привет, Гость.
Предлагаем пройти революционный курс по гитаре.
Подарок от PrimaNota.Ru, забирай!