PrimaNota.ru - самый крупный в мире бесплатный архив песенных текстов, аккордов, табулатур и нот


Robby Hunter Band - Book I Never Read - бас-таба, видео

Регистрация Запомнить меня
Войти через:  Facebook Google Twitter Vk Yandex Mail.ru

Robby Hunter Band - Book I Never Read - бас-таба, видео

Печатать
Просмотров: 67
Bass comes in at 0:30

Verse 1

G|----------------------------------------------------234---------------|
D|---------------------------------5/7-5-5------------------------------|
A|----------------------------------------7--5\--------------7-5--------|
E|--8-88--8-8-8\3-33--3-3--8--88----------------3--33-----3------7-5----|

Chorus

G|----------16/14---------------------------------------------------------------|
D|-----------------14-----------------------------------------------------------|
A|------14------------14--9h10p9h10p9h10p9h10------------------12/14-12----12---|
E|--12-----------------------------------------10/12--12-11-10----------12------|

G|-------------------------------|---------------|
D|-------------------------------|----14----16---|
A|--9h10p9h10p9h10p9h10----------|---------------|
E|------------------------10/12~-|--12----14-----|

Verse 2:

G|-------5-------------------234-------4h5-4----|
D|-----5---5-----5-7-------------------------5--|
A|--3---------3------5-7------------------------|
E|------------------------3-------3-3-----------|

G|-------5------------------------------------|
D|-----5---5----5-7----------5-------4h5-4----|
A|--3---------3-----5-7----5---5-----------5--|
E|-----------------------3--------3-----------|

Outro

G|----------------------------|
D|----------------------------|
A|--10-10-10-10-10-10-10-10---|
E|----------------------------| Play until the end

Verse 1 x3
Chorus x2
Verse 2 x2
Break
Chorus x1
Outro
Добавлено: 17.12.2015
Другие материалы по этой песне:
  • Аккорды и текст

Страница создана 17.12.2015
http://primanota.ru/robby-hunter-band/book-i-never-read-chords.htm
Привет, Гость.
Предлагаем пройти революционный курс по гитаре.
Подарок от PrimaNota.Ru, забирай!