PrimaNota.ru - самый крупный в мире бесплатный архив песенных текстов, аккордов, табулатур и нот


Robbie Williams - Love Somebody - аккорды и текст, таба, бас-таба, видео

Регистрация Запомнить меня
Войти через:  Facebook Google Twitter Vk Yandex Mail.ru

Robbie Williams - Love Somebody - аккорды и текст, таба, бас-таба, видео

Печатать
Просмотров: 373
Авторы: Guy Chambers, Robbie Williams

Love Somebody
Robbie Williams
-------------------------------------------------------------------------
LOVE SOMEBODY – Robbie Williams
-------------------------------------------------------------------------
Tabbed by: Kengus

Standard tuning

INTRO                                      VERSE1
   Em        Em7        Em6      C/E       Em        E7sus2   C/E
e|-0-0-0-0---0-0-0-0---0-0-0-0---0-0-0-0---0-0-0-0---2-2-2-2--0-0-0-0----|
B|-0-0-0-0---3-3-3-3---2-2-2-2---1-1-1-1---0-0-0-0---3-3-3-3--1-1-1-1----|
G|-0-0-0-0---0-0-0-0---0-0-0-0---0-0-0-0---0-0-0-0---4-4-4-4--0-0-0-0----|
D|-2-2-2-2-2-2-2-2-2-2-2-2-2-2-2-2-2-2-2-2-2-2-2-2-2-2-2-2-2--2-2-2-2-2--|
A|-----------------------------------------------------------------------|
E|-----------------------------------------------------------------------|
   G     B7  Em        E7sus2   C/E        G       Dsus2
e|-----------0-0-0-0---2-2-2-2--0-0-0-0---------------|
B|-1-0-0-0---0-0-0-0---3-3-3-3--1-1-1-1----1-0-----3--|
G|-0---2-2---0-0-0-0---4-4-4-4--0-0-0-0----0---2-0-2--|
D|-0---2-1---2-2-2-2-2-2-2-2-2--2-2-2-2-2--0-------0--|
A|-----0-2--------------------------------------------|
E|-3---------------------------------------3----------|

VERSE1
Em                      E7sus2
Always and forever is forever young
     C/E                         G                B7
Your shadow on the pavement, the dark side of the sun
      Em                          E7sus2
Gotta dream the dream all over and sleep here tight
          C/E                      G         Dsus2
You don't wanna sing the blues, in black and white

PRE-CHORUS
         Dsus2                          D
And it's hope that spring's eternal for everyone
   Dsus2                           B7sus4 B7            B7sus4 = x22200
If it ain't broken break it or the damage done

CHORUS
          Em         B                                   Em = 022000
Trying to love somebody                                   B/F# = 224422
          Abdim          Am                              Abdim = 4564xx
Just wanna love somebody right now                          Am = 577555
Em/B        C6/A              F#7  B7                     Em/B = 779987 
     There's just no pleasing me                    C6/A = 8-0-10-9-8-0
          Em         B
Trying to love somebody
            Abdim          Am
Just want to love somebody right now
Em/B             B7      Esus4 E
   Baby lay your love on me

INTRO (repeat intro here)

VERSE2 (play same as verse1)
Violet in the rainbow just melt away
There's not enough minutes in the hour, or hours in the day
The song played in a circle that never skips a beat
The stranger in a country that I have yet to meet

PRE-CHORUS (same as before)
And it's hope that spring's eternal for everyone
Got a lifetime in a second oh the damage done

CHORUS (same as before)
Trying to love somebody
Just wanna love somebody right now
Guess there's just no pleasing me
I want to love somebody
Just want to love somebody right now
Baby lay your love on me

BRIDGE (basically same chords as the chorus) 
      Em                  B              Abdim         Am
It'll come in your sweet time, Lord, I just gotta let you in
    Em/B              C6/A                 F#7             B7
The blind leading the blind, Lord, getting underneath your skin
      Em              B           Abdim        Am
I can feel you in the silence, saying let forever be
Em/B       B7                 Esus4  E
Love, only love, will set you free

CHORUS (same as before)
I wanna love somebody
Wanna love somebody right now
There's just no pleasing me
I wanna love somebody
Just wanna love somebody right now
Lay lay, lay your love on me

BRIDGE (same as before)
It'll come in your sweet time, Lord, I just gotta let you in
The blind leading the blind, Lord, getting underneath your skin
I can feel you in the silence, saying let forever be
Love, only love, will set you free

OUTRO
   Em        Em7        Em6      C/E       Em                        
e|-0-0-0-0---2-2-2-2---0-0-0-0---0-0-0-0---0------------------|
B|-0-0-0-0---3-3-3-3---2-2-2-2---1-1-1-1---0------------------|
G|-0-0-0-0---4-4-4-4---0-0-0-0---0-0-0-0---0------------------|
D|-2-2-2-2-2-4-4-4-4-4-2-2-2-2-2-2-2-2-2---2------------------|
A|-----------------------------------------2------------------|
E|-----------------------------------------0------------------|

========================================================================
Comment, rate, appreciate!
Добавлено: 19.06.2012
Другие материалы по этой песне:
  • Аккорды и текст

Страница создана 23.02.2012
http://primanota.ru/robbie-williams/love-somebody-chords.htm
Привет, Гость.
Предлагаем пройти революционный курс по гитаре.
Подарок от PrimaNota.Ru, забирай!