PrimaNota.ru - самый крупный в мире бесплатный архив песенных текстов, аккордов, табулатур и нот


Robben Ford - Getaway - бас-таба, видео

Регистрация Запомнить меня
Войти через:  Facebook Google Twitter Vk Yandex Mail.ru

Robben Ford - Getaway - бас-таба, видео

Печатать
Просмотров: 101
GETAWAY
BASS
STANDARD

* = soft (palm muted)
h p = hammeron/pulloff
/\ = slide
~ = let ring


Intro/Verse                         0:04
G|----------------|----------------|----------------|----------------|----------------|
D|-------=--------|--------=-------|----------------|----------------|----------------|
A|----------------|----------------|----------------|---3~--3~--3~\--|------------3~~~|
E|----------------|----------------|0~----1~-----/3-|-3~-------------|0~----1~--------|
|| 0:12
G|----------------|----------------|----------------|----------------|----------------|
D|-------=--------|----------------|----------------|----------------|----------------|
A|~~~~------------|----------------|----------------|3--3------------|----------------|
E|----------------|---------0h1h3-6|/8-------------3|--3--3-0-1~---3/|8~~-------------|
|| 0:22                                            * * ** *
G|----------------|----------------|----------------|----------------|----------------|
D|----------------|----------------|----------------|----------------|----------------|
A|----------------|----------------|----------------|----------------|3---------------|
E|--------1~~-----|1~~-------------|3~~------0h1h3-6|/8-------------3|--3-0~~---------|
|| 0:35                                                             * * *
G|----------------|----------------|
D|----------------|----------------|
A|----------------|----------------|
E|1~~~~~----------|3~~~~-----------|


Chorus 0:40
G|----------------|----------------|----------------|----------------|
D|----------------|----------------|----------------|----------------|
A|----------------|----3~--3~~-----|------------3~~-|33333333------3-|
E|0~~~---1~~---1h3|3--3----------53|0~~----1~-------|---------0h1h3--|
                                                     ********
Next part 0:49
G|----------------|----------------|----------------|----------------|----------------|
D|----------------|----------------|----------------|----------------|----------------|
A|3\--------------|---------------1|/3--------------|-----3\\--------|----------------|
E|----------------|----x3-0-1~~----|----------------|--------0~~-----|1~~~------------|
|| 0:59
G|----------------|----------------|----------------|----------------|----------------|
D|----------------|----------------|----------------|----------------|----------------|
A|----------------|------3---------|----------------|----------------|----------------|
E|3~~~----------33|0h1-3-----------|--------0~~-----|1~~-------------|3~~-------------|
|| 1:14         **
G|----------------|----------------|----------------|----------------|
D|----------------|----------------|----------------|----------------|
A|----------------|---------3--3~~-|------------3-3-|3-3-3-3---------|
E|0~~---1~~----/3-|------1h3-------|0~----1~-3~-----|--------0-0-3-3-|
                                                * *  * * * *

"I want your love" 1:24
G|----------------|----------------|----------------|----------------|----------------|
D|----------------|----------------|----------------|----------------|----------------|
A|----------------|------------32--|----------------|----------------|----------------|
E|5-555-555-555-55|5-555-555-35--35|5-555-555-555-55|5-555-558-8880~-|1-1-1-1-1-1-1-1-|
|| 1:36                      (H & P)                  1:43
G|----------------|----------------|----------------|-------15h17h19----------|----------------|
D|----------------|----------------|----------------|5~~//17--------17--------|----------------|
A|----------------|----------------|-------------3h5|-------------------------|----------------|
E|1-1-1-1-1-1-0-0-|0~----2~~-------|3~~~------------|-----------------0h1h3-6/|8\--------------|
|| 1:48
G|----------------|----------------|----------------|----------------|----------------| 
D|----------------|----------------|----------------|-------------3-4|5~~-------------|
A|----------------|3~~-------------|---3------------|------------3---|----------------|
E|------0-1~---1h3|----------------|-----3-1-0~~----|1~--------------|-------------1h3|
|| 2:00
G|----------------|----------------|----------------|----------------|
D|------------2///|21--------------|----------------|----------------|
A|3---------------|----------------|----------------|----------------|
E|----------------|---1-0~~~-------|1~~-------------|3~~---------3/8\|

Chorus 2  2:10
G|----------------|----------------|----------------|----------------|
D|----------------|-------------1h2|----------------|----------------|
A|----------------|---0h3--3~--3---|--3-------------|-------------1-2|
E|0~~---1~~----1h3|----------------|----1~~~--------|3~~---------3---|
|| 2:20
G|----------------|----------------|----------------|----------------|
D|----------------|----------------|----------------|2-5-------------|
A|3\\-------------|----------------|----------------|----------------|
E|----------------|--3-0~~---------|1~~-------------|----3~~---------|


Chorus 3/Outro 2:29
G|----------------|----------------|----------------|----------------|
D|----------------|----------------|----------------|----------------|
A|----------------|---0h3--3~--3-\\|-----------3~~~~|~~~~~~~~~-------|
E|0~~---1~~----1h3|----------------|0~~---1~~-------|----------------|
End
Добавлено: 01.10.2013
Другие материалы по этой песне:
  • Аккорды и текст

Страница создана 01.10.2013
http://primanota.ru/robben-ford/getaway-chords.htm
Привет, Гость.
Предлагаем пройти революционный курс по гитаре.
Подарок от PrimaNota.Ru, забирай!