PrimaNota.ru - самый крупный в мире бесплатный архив песенных текстов, аккордов, табулатур и нот


Rob Zombie - Michael - таба, видео

Регистрация Запомнить меня
Войти через:  Facebook Google Twitter Vk Yandex Mail.ru

Rob Zombie - Michael - таба, видео

Печатать
Просмотров: 112
Rob Zombie - Micheal
From 'Hellbilly Deluxe 2: Deluxe Edition'
Tuning : Drop C

 This song is kinda a dark 12-bar blues song the riff's are quite simple.


D|-------------------|
A|-------------------|
F|-------------------|        This is the main riff of the verse do thistwice
C|-------------------|        for the intro but four times for the verse.
G|-------------------|
C|-2--2-4--4-5--5-4--|

then
D|--------------------|-----------------|-----------------|------------------|
A|--------------------|-----------------|-----------------|------------------|
F|--------------------|-----------------|-----------------|------------------|
C|--------------------|-----------------|-----------------|-5--5--444444-----|
G|-0--0-3-0--0-0-3-0--|-----------------|-----------------|-5--5--444444-----|
C|--------------------|-2-2-4--4-5--5-4-|-2-2-4--4-5--5-4-|-5--5--444444-----|

Chorus

D|-------------------------------|-------------------------------|
A|-------------------------------|-------------------------------|
F|--------4-3--x--4-3-x--4-3-----|--------4-3--x--4-3-x--4-3-----|
C|--2---x-4-3--x--4-3-x--4-3--5--|--2---x-4-3--x--4-3-x--4-3--5--|
G|--2---x-2-1--x--2-1-x--2-1--5--|--2---x-2-1--x--2-1-x--2-1--5--|
C|--2---x---------------------5--|--2---x---------------------5--|

D|-------------------------------|-------------------------------|
A|-------------------------------|-------------------------------|
F|--------4-3--x--4-3-x--4-3-----|--------4-3--x--4-3-x--4-3-----|
C|--2---x-4-3--x--4-3-x--4-3--5--|--2---x-4-3--x--4-3-x--4-3--5--|
G|--2---x-2-1--x--2-1-x--2-1--5--|--2---x-2-1--x--2-1-x--2-1--5--|
C|--2---x---------------------5--|--2---x---------------------5--|

D|-----------|
A|-----------|
F|-----------|
C|--2--------|
G|--2--------|   <--  let this chord ring out into the post chorus thingy
C|--2--------|

Verse 2 is the same as one, so is the chorus, then the solo is just some improvising in 
D minor pentatonic over a less distorted verse.

Intro (first riff in the verse x2)
Verse 1,
Chorus,
Post Chorus (D chord ringing out)
Verse 2,
Chorus,
Solo,
Chorus,

Thats it,

tabbed by
Troyford (From Our Violet Dreams)
Добавлено: 24.07.2013
Другие материалы по этой песне:
  • Аккорды и текст

Страница создана 24.07.2013
http://primanota.ru/rob-zombie/michael-chords.htm
Привет, Гость.
Предлагаем пройти революционный курс по гитаре.
Подарок от PrimaNota.Ru, забирай!